Cien Ovejas

Chords

01234567891011121314151617181920212223
E
B
G
D
A
E
B
0 1 2 3 4 5 6 7 8 9 10 11 12 13 14 15 16 17 18 19 20 21 22 23
(/) Slide Up  (\) Slide Down  (h) Hammer On  (p) Pull Off  (b) Bend (r) Release (v) Vibrato

Stave 1:

E|--7--8---10--8---12--10-----14--14--14--15--14--12--
B|--8--10--12--10--13--12-----15--15--15--17--15--13--
G|----------------------------------------------------
D|----------------------------------------------------
A|----------------------------------------------------
E|----------------------------------------------------

Stave 2:

E|--8---10--12--14--12--10-----7--8---10--12--10--8------14--14--5--8---7--
B|--10--12--13--15--13--12-----8--10--12--13--12--10-----15--15--7--10--8--
G|-------------------------------------------------------------------------
D|-------------------------------------------------------------------------
A|-------------------------------------------------------------------------
E|-------------------------------------------------------------------------

							http://www.guitartabcreator.com
Instruments
{"title":"Cien Ovejas","strings":[[[7,8,10,8,12,10,".",14,14,14,15,14,12],[8,10,12,10,13,12,".",15,15,15,17,15,13],[".",".",".",".",".",".",".",".",".",".",".",".","."],[".",".",".",".",".",".",".",".",".",".",".",".","."],[".",".",".",".",".",".",".",".",".",".",".",".","."],[".",".",".",".",".",".",".",".",".",".",".",".","."]],[[8,10,12,14,12,10,"_",7,8,10,12,10,8,".",14,14,5,8,7],[10,12,13,15,13,12,"_",8,10,12,13,12,10,".",15,15,7,10,8],[".",".",".",".",".",".","_",".",".",".",".",".",".",".",".",".",".",".","."],[".",".",".",".",".",".","_",".",".",".",".",".",".",".",".",".",".",".","."],[".",".",".",".",".",".","_",".",".",".",".",".",".",".",".",".",".",".","."],[".",".",".",".",".",".","_",".",".",".",".",".",".",".",".",".",".",".","."]]],"numberofstrings":6,"notes":["E","B","G","D","A","E","B"],"capo":0,"stringnotes":["E4","B3","G3","D3","A2","E2"],"comments":["Stave 1:","Stave 2:"],"timing":[[null,"W","W","W","W","W","W",null,"W","W","W","W","W","W"],[null,"W","W","W","W","W","W","W","W","W","W","W","W","W",null,"W","W","W","W","W"]],"timingvisible":false,"tabcounter":19,"stave":1,"totalstaves":2,"instrument":"6guitar","selectedtuning":"6_standard","version":"13"}

Member for

2 years 8 months
Submitted by frankysotomusic on Mon, 2019-01-21 20:00