Caminos de Michoacan

Chords

01234567891011121314151617181920212223
E
B
G
D
A
E
B
0 1 2 3 4 5 6 7 8 9 10 11 12 13 14 15 16 17 18 19 20 21 22 23
(/) Slide Up  (\) Slide Down  (h) Hammer On  (p) Pull Off  (b) Bend (r) Release (v) Vibrato

Stave 1:

E|--7--7--8---10--10--10--12--12--12--14--14--14--15--15--15--14--12--10--8---
B|--8--8--10--12--12--12--13--13--13--15--15--15--17--17--17--15--13--12--10--
G|----------------------------------------------------------------------------
D|----------------------------------------------------------------------------
A|----------------------------------------------------------------------------
E|----------------------------------------------------------------------------

Stave 2:

E|--5--5--7--8---8---8---10--10--10--12--12--12--14--14--14--12--10--8---7--
B|--7--7--8--10--10--10--12--12--12--13--13--13--15--15--15--13--12--10--8--
G|--------------------------------------------------------------------------
D|--------------------------------------------------------------------------
A|--------------------------------------------------------------------------
E|--------------------------------------------------------------------------

Stave 3:

E|--10--10--8---7--10--10--8---7--8---10--12--14--12--10--8------5--5--3--2--0-----------
B|--12--12--10--8--12--12--10--8--10--12--13--15--13--12--10-----7--7--5--3--1--3--1--0--
G|------------------------------------------------------------------------------4--2--0--
D|---------------------------------------------------------------------------------------
A|---------------------------------------------------------------------------------------
E|---------------------------------------------------------------------------------------

Stave 4:

E|--5--5--3--2--0-----------
B|--7--7--5--3--1--3--1--0--
G|-----------------4--2--0--
D|--------------------------
A|--------------------------
E|--------------------------

							http://www.guitartabcreator.com
Instruments
{"title":"Caminos de Michoacan","strings":[[[7,7,8,10,10,10,12,12,12,14,14,14,15,15,15,14,12,10,8],[8,8,10,12,12,12,13,13,13,15,15,15,17,17,17,15,13,12,10],[".",".",".",".",".",".",".",".",".",".",".",".",".",".",".",".",".",".","."],[".",".",".",".",".",".",".",".",".",".",".",".",".",".",".",".",".",".","."],[".",".",".",".",".",".",".",".",".",".",".",".",".",".",".",".",".",".","."],[".",".",".",".",".",".",".",".",".",".",".",".",".",".",".",".",".",".","."]],[[5,5,7,8,8,8,10,10,10,12,12,12,14,14,14,12,10,8,7],[7,7,8,10,10,10,12,12,12,13,13,13,15,15,15,13,12,10,8],[".",".",".",".",".",".",".",".",".",".",".",".",".",".",".",".",".",".","."],[".",".",".",".",".",".",".",".",".",".",".",".",".",".",".",".",".",".","."],[".",".",".",".",".",".",".",".",".",".",".",".",".",".",".",".",".",".","."],[".",".",".",".",".",".",".",".",".",".",".",".",".",".",".",".",".",".","."]],[[10,10,8,7,10,10,8,7,8,10,12,14,12,10,8,".",5,5,3,2,0,".",".","."],[12,12,10,8,12,12,10,8,10,12,13,15,13,12,10,".",7,7,5,3,1,3,1,0],[".",".",".",".",".",".",".",".",".",".",".",".",".",".",".",".",".",".",".",".",".",4,2,0],[".",".",".",".",".",".",".",".",".",".",".",".",".",".",".",".",".",".",".",".",".",".",".","."],[".",".",".",".",".",".",".",".",".",".",".",".",".",".",".",".",".",".",".",".",".",".",".","."],[".",".",".",".",".",".",".",".",".",".",".",".",".",".",".",".",".",".",".",".",".",".",".","."]],[[5,5,3,2,0,".",".","."],[7,7,5,3,1,3,1,0],[".",".",".",".",".",4,2,0],[".",".",".",".",".",".",".","."],[".",".",".",".",".",".",".","."],[".",".",".",".",".",".",".","."]]],"numberofstrings":6,"notes":["E","B","G","D","A","E","B"],"capo":0,"stringnotes":["E4","B3","G3","D3","A2","E2"],"comments":["Stave 1:","Stave 2:","Stave 3:","Stave 4:"],"timing":[[null,"W","W","W","W","W","W","W","W","W","W","W","W","W","W","W","W","W","W","W"],[null,"W","W","W","W","W","W","W","W","W","W","W","W","W","W","W","W","W","W","W"],[null,"W","W","W","W","W","W","W","W","W","W","W","W","W","W","W",null,"W","W","W","W","W","W","W","W"],[null,"W","W","W","W","W","W","W","W"]],"timingvisible":false,"tabcounter":24,"stave":2,"totalstaves":4,"instrument":"6guitar","selectedtuning":"6_standard","version":"13"}

Member for

2 years 9 months
Submitted by frankysotomusic on Tue, 2019-01-08 00:51