Caminos de Guanajuato

Chords

01234567891011121314151617181920212223
E
B
G
D
A
E
B
0 1 2 3 4 5 6 7 8 9 10 11 12 13 14 15 16 17 18 19 20 21 22 23
(/) Slide Up  (\) Slide Down  (h) Hammer On  (p) Pull Off  (b) Bend (r) Release (v) Vibrato

Stave 1:

E|-----4-----4--4--2--0--2--------------------------------------
B|--4--5-----5--5--4--2--4--4-----2-----0--2-----0--2--0--------
G|--4-----------------------4--------2--------2-----------2--1--
D|--------------------------------------------------------------
A|--------------------------------------------------------------
E|--------------------------------------------------------------

Stave 2:

E|-----4-----4--4--2--0--2----------------------------------------
B|--4--5-----5--5--4--2--4--4-----2-----0--2-----0--2--4--4/5-----
G|--4-----------------------4--------2--------2-------------------
D|----------------------------------------------------------------
A|----------------------------------------------------------------
E|----------------------------------------------------------------

							http://www.guitartabcreator.com
Instruments
{"title":"Caminos de Guanajuato","strings":[[[".",4,"_",4,4,2,0,2,".",".",".",".",".",".",".",".",".",".","_","_"],[4,5,"_",5,5,4,2,4,4,".",2,".",0,2,".",0,2,0,"_","_"],[4,".","_",".",".",".",".",".",4,".",".",2,".",".",2,".",".",".",2,1],[".",".","_",".",".",".",".",".",".",".",".",".",".",".",".",".",".",".","_","_"],[".",".","_",".",".",".",".",".",".",".",".",".",".",".",".",".",".",".","_","_"],[".",".","_",".",".",".",".",".",".",".",".",".",".",".",".",".",".",".","_","_"]],[["_",4,".",4,4,2,0,2,".",".",".",".",".",".",".",".",".",".",".",".",".","."],[4,5,".",5,5,4,2,4,4,".",2,".",0,2,".",0,2,4,4,"/",5,"."],[4,".",".",".",".",".",".",".",4,".",".",2,".",".",2,".",".",".",".",".",".","."],["_",".",".",".",".",".",".",".",".",".",".",".",".",".",".",".",".",".",".",".",".","."],["_",".",".",".",".",".",".",".",".",".",".",".",".",".",".",".",".",".",".",".",".","."],["_",".",".",".",".",".",".",".",".",".",".",".",".",".",".",".",".",".",".",".",".","."]]],"numberofstrings":6,"notes":["E","B","G","D","A","E","B"],"capo":0,"stringnotes":["E4","B3","G3","D3","A2","E2"],"comments":["Stave 1:","Stave 2:"],"timing":[[null,"W","W","W",null,"W","W","W","W","W",null,"W","W","W","W","W","W","W","W","W","W",null,"W"],[null,"W",null,"W",null,"W","W","W","W","W",null,"W","W","W","W","W","W","W","W","W",null,"W"]],"timingvisible":false,"tabcounter":22,"stave":1,"totalstaves":2,"instrument":"6guitar","selectedtuning":"6_standard","version":"13"}

Member for

2 years 8 months
Submitted by frankysotomusic on Mon, 2019-01-14 22:07