Sound will begin in 5 seconds

Southern Girl

Chords
01234567891011121314151617181920212223
E
B
G
D
A
E
B
0 1 2 3 4 5 6 7 8 9 10 11 12 13 14 15 16 17 18 19 20 21 22 23
Song Science #1: How Pros Use 6 Chords to Write Hit Songs
(/) Slide Up  (\) Slide Down  (h) Hammer On  (p) Pull Off  (b) Bend (r) Release (v) Vibrato

Stave 1:

E|-----------------------------------------------------------------------
B|-----------------------------------------------------------------------
G|-----------------------------------------------------------------------
D|-----------------------------------------------------------------------
A|-----------------------------------------------------------------------
E|--------------------------------------------------------------------0--

Stave 2:

E|-----5--------------5--------4--------------------
B|-----0--------------0--------0--------------------
G|-----5-----5--------5--------4-----1--------------
D|--------------------------------------0-----------
A|--------------------------3-----------------------
E|--5-----0--3-----3-----0--------0--------1--1--0--

Stave 3:

E|-----5--------------5--------4----------------------
B|-----0--------------0--------0----------------------
G|-----5-----5--------5--------4----------------------
D|--------------------------------------0-------------
A|--------------------------3--------------3----------
E|--5-----0--3-----3-----0--------0--1--------1p0--0--

Stave 4:

E|--5-----5-----5--5-----5--------5-----------------------3-----------
B|--6-----6-----6--6-----5--5--------5--------------3--------3--------
G|--7-----7-----7--7-----5-----5--------5--------4-----4--------4-----
D|--7-----7-----7--7-----7-----------------7-----------------------5--
A|--5-----5-----5--5-----7--------------------------------------------
E|-----------------------5--------------------3-----------------------

Stave 5:

E|--1-----1--------1--1-----0-----0--0--3-----3--3--3--
B|--1-----1--------1--1-----0-----0--0--3-----3--3--3--
G|--2-----2--------2--2-----1-----1--1--4-----4--4--4--
D|--3-----3--------3--3-----2-----2--2--5-----5--5--5--
A|--3-----3--------3--3-----2-----2--2--5-----5--5--5--
E|--1-----1--------1--1-----0-----0--0--3-----3--3--3--

Stave 6:

E|---------------------------------------
B|---------------------------------------
G|--5h7--5--5h7--5h7---------------------
D|--------------------5--5/2--2--2-----2/
A|---------------------------------------
E|---------------------------------------

Stave 7:

E|--------------------5-----5--------5--------5--8-----
B|--------5-----5--8-----8--------8--------8--------5--
G|--5--7-----7-----------------------------------------
D|-----------------------------------------------------
A|-----------------------------------------------------
E|-----------------------------------------------------

Stave 8:

E|--------5-----8--------------------------------------
B|-----5-----5-----5-----------------------------------
G|--7-----------------5-----7--5--4--4b5b4-------------
D|------------------------------------------5--5/7-----
A|-----------------------------------------------------
E|-----------------------------------------------------

Stave 9:

E|-----------------------------------------
B|-----------------------------------------
G|--5-----7\5--5--5-------------7--7-------
D|-----7-------------7--7\5--5-------------
A|------------------------------------7--7\
E|-----------------------------------------

Stave 10:

E|--1--------------0--------------0-----------
B|--1-----------1--------1-----1-----1--------
G|--2-----------------------2-----------2-----
D|--3--------------------------------------3--
A|--3-----------------------------------------
E|--------------------------------------------

Stave 11:

E|--0--------------------0--------0--2--0-----
B|--0-----------------------0--------------0--
G|--1--------------------------1--------------
D|--2-----------------------------------------
A|--2-----------------------------------------
E|--0-----------------------------------------

Stave 12:

E|-----------------0-----------0--2--0-----
B|--0--0--------0-----0-----0--------------
G|--------1--1-----------1--------------1--
D|-----------------------------------------
A|-----------------------------------------
E|-----------------------------------------

http://www.guitartabcreator.com
Guitar Tab Creator is intended to store guitar tab created through the tool. It currently does not support in-line text editing. Any text you place in here will be lost. If you need to comment on your tab, please use the "Tab Notes" section located below.