Sound will begin in 5 seconds

King Khan & His Shrines - Fool Like Me

Chords
01234567891011121314151617181920212223
E
B
G
D
A
E
B
0 1 2 3 4 5 6 7 8 9 10 11 12 13 14 15 16 17 18 19 20 21 22 23
Song Science #1: How Pros Use 6 Chords to Write Hit Songs
(/) Slide Up  (\) Slide Down  (h) Hammer On  (p) Pull Off  (b) Bend (r) Release (v) Vibrato

Stave 1:

E|-------------------------------8---------3----------------------1----------------------------|--
B|-------------------------------10--------5----------------------3----------------------------|--
G|-------------------------------10--------5--5-------------------3----------------------5-----|--
D|---------10--10h12--10---------10--------5-----5-------------3--3-------------------5--------|--
A|--10h12-----------------12--8--8---------3--------3--3--3h5-----1-------------3--------------|--
E|-------------------------------------------------------------------1h3--1--3-----------------|--

Stave 2:

E|------------------------------------------------------------------------
B|--5/10--11--11--10----------5--6--6--5----------------------------------
G|--------------------9\5--5-----------------3--5/7--7--7--7--7--7--7--7--
D|----------------------------------------5-------------------------------
A|------------------------------------------------------------------------
E|------------------------------------------------------------------------

Stave 3:

E|------------------------------------------
B|------------------------------------------
G|--5p3-------------------------------------
D|-------5-------5--------------------------
A|----------5h7-----7\5--3-------3----------
E|--------------------------3h5-----5\3--1--

Stave 4:

E|-----------------------------------------------------------------------------------
B|-----------------------------------------------------------------------------------
G|-----7--7--7--7-----7--7--7--7-----7--7--7--7-----7--7--7--7-----5-----------------
D|-----7--7--7--7-----7--7--7--7-----7--7--7--7-----7--7--7--7-----5--5/7--7/8--8\7--
A|-----5--5--5--5-----5--5--5--5-----5--5--5--5-----5--5--5--5-----3-----------------
E|-----------------------------------------------------------------------------------

http://www.guitartabcreator.com
Guitar Tab Creator is intended to store guitar tab created through the tool. It currently does not support in-line text editing. Any text you place in here will be lost. If you need to comment on your tab, please use the "Tab Notes" section located below.