Sound will begin in 5 seconds

Ben Kenney - Worlds Collide

Chords
01234567891011121314151617181920212223
E
B
G
D
A
E
B
0 1 2 3 4 5 6 7 8 9 10 11 12 13 14 15 16 17 18 19 20 21 22 23
Song Science #1: How Pros Use 6 Chords to Write Hit Songs
(/) Slide Up  (\) Slide Down  (h) Hammer On  (p) Pull Off  (b) Bend (r) Release (v) Vibrato

Stave 1:

E|--------------------------------------------------------------------------------|--
B|--------------------------------------------------------------------------------|--
G|--4-----4--4--------4-----4--4--------11-----11--11--------6-----6--6--6--6--6--|--
D|--------------------------------------------------------------------------------|--
A|--2-----2--2--------2-----2--2--------9------9---9---------4-----4--4--4--4--4--|--
E|--3-----3--3--------3-----3--3--------10-----10--10--------5-----5--5--5--5--5--|--

Stave 2:

E|--------------------------------------------------------------------------------|--
B|--------------------------------------------------------------------------------|--
G|--4-----4--4--------4-----4--4--------11-----11--11--------6-----6--6--7--7--6--|--
D|--------------------------------------------------------------------------------|--
A|--2-----2--2--------2-----2--2--------9------9---9---------4-----4--4--4--4--4--|--
E|--3-----3--3--------3-----3--3--------10-----10--10--------5-----5--5--5--5--5--|--

Stave 3:

E|---------------------------------------------------------------------------------------|--
B|---------------------------------------------------------------------------------------|--
G|--4--------6--------7--------11--------4-----4--4--4--4--4--------4-----4--4--4--4--4--|--
D|---------------------------------------------------------------------------------------|--
A|--2--------4--------5--------9---------2-----2--2--2--2--2--------2-----2--2--2--2--2--|--
E|--3--------5--------7--------10--------3-----3--3--3--3--3--------3-----3--3--3--3--3--|--

Stave 4:

E|---------------------------------------------------------------------------------|--
B|---------------------------------------------------------------------------------|--
G|--4--------6--------7--------14--------9--9--9--9--7--7--7--7--7--7--7--7--7--7--|--
D|---------------------------------------------------------------------------------|--
A|--2--------4--------5--------12--------7--7--7--7--5--5--5--5--5--5--5--5--5--5--|--
E|--3--------5--------7--------14--------9--9--9--9--7--7--7--7--7--7--7--7--7--7--|--

Stave 5:

E|------10----------10----------10------10----------10----------10--|------10----------10----------10-----9---------9---------9--|--
B|----------10----------10------------------10----------10----------|----------10----------10----------------10--------10--------|--
G|--12----------12----------12------12----------12----------12------|--11----------11----------11------9---------9---------9-----|--
D|------------------------------------------------------------------|------------------------------------------------------------|--
A|------------------------------------------------------------------|------------------------------------------------------------|--
E|------------------------------------------------------------------|------------------------------------------------------------|--

Stave 6:

E|------10----------10----------10------10----------10----------10--|------10----------10----------10--9---9---9---9---9---9---|--
B|----------10----------10------------------10----------10----------|----------10----------10----------10--10--10--10--10--10--|--
G|--12----------12----------12------12----------12----------12------|--11----------11----------11------9---9---9---9---9---9---|--
D|------------------------------------------------------------------|----------------------------------------------------------|--
A|------------------------------------------------------------------|----------------------------------------------------------|--
E|------------------------------------------------------------------|----------------------------------------------------------|--

Stave 7:

E|---------------------------------------------------------------------------------|---------------------------------------------|--
B|---------------------------------------------------------------------------------|---------------------------------------------|--
G|--4--------6--------7--------14--------9--9--9--9--7--7--7--7--7--7--7--7--7--7--|--9--9--9--11--7--7--7--7--7--7--7--7--7--7--|--
D|---------------------------------------------------------------------------------|---------------------------------------------|--
A|--2--------4--------5--------12--------7--7--7--7--5--5--5--5--5--5--5--5--5--5--|--7--7--7--9---5--5--5--5--5--5--5--5--5--5--|--
E|--3--------5--------7--------14--------9--9--9--9--7--7--7--7--7--7--7--7--7--7--|--9--9--9--10--7--7--7--7--7--7--7--7--7--7--|--

Stave 8:

E|--3--------3-----3--3--3--3--------------|--2--------2-----2--2-----------------|--
B|--3--------3-----3--3--3--3--------------|--3--------3-----3--3--2--2--2--2--2--|--
G|--------------------------------------0--|--2--------2-----2--2--2--2--2--2--2--|--
D|-----------------------------0--2--4-----|--------------------4--2--2--2--2--2--|--
A|--2--------2-----2--2--2--2--------------|--------------------------------------|--
E|--3--------3-----3--3--3--3--------------|--------------------------------------|--

http://www.guitartabcreator.com
Guitar Tab Creator is intended to store guitar tab created through the tool. It currently does not support in-line text editing. Any text you place in here will be lost. If you need to comment on your tab, please use the "Tab Notes" section located below.