Sound will begin in 5 seconds

Starship

Chords
01234567891011121314151617181920212223
E
B
G
D
A
E
B
0 1 2 3 4 5 6 7 8 9 10 11 12 13 14 15 16 17 18 19 20 21 22 23
Song Science #1: How Pros Use 6 Chords to Write Hit Songs
(/) Slide Up  (\) Slide Down  (h) Hammer On  (p) Pull Off  (b) Bend (r) Release (v) Vibrato

Stave 1:

E|-------------------------------------------8---10-------------------------------------------8---10--
B|-------------------------------------------8---10-------------------------------------------8---10--
G|-------------------------------------------9---11-------------------------------------------9---11--
D|-------------------------------------------10--12-------------------------------------------10--12--
A|--------7--7--7--------5h7--5--------------10--12--------7--7--7--------5h7--5--------------10--12--
E|--0--0-----------0--0----------0--0--5--6--8---10--0--0-----------0--0----------0--0--5--6--8---10--

Stave 2:

E|--------------------------------------------------------------
B|----------------5--5--5------------------------7--7--7--------
G|----------------5--5--5------------------------7--7--7--------
D|-------------5--5--5--5--7--5---------------7--7--7--7--9--7--
A|--------6h7----------------------------8h9--------------------
E|--8--8-------------------------10--10-------------------------

Stave 3:

E|-----------------------------------------------------------------------------------------------
B|----------------5--5--5------------------------7--7--7--5--7-----5--7-----5--5--5--5--5--5--7--
G|----------------5--5--5------------------------7--7--7--5--7-----5--7-----5--5--5--5--5--5--7--
D|-------------5--5--5--5--7--5---------------7--7--7--7--5--7-----5--7-----5--5--5--5--5--5--7--
A|--------6h7----------------------------8h9-----------------------------------------------------
E|--8--8-------------------------10--10----------------------------------------------------------

Stave 4:

E|--------------------------------------------------------------------------------------
B|--------------------------------------------------------------------------------------
G|--7b9--7b9--7--5-------7b9--7b9--7--5-------7b9--7b9--7--5-------7b9--7b9--7--5-------
D|------------------7p5------------------7p5------------------7p5------------------7p5--
A|--------------------------------------------------------------------------------------
E|--------------------------------------------------------------------------------------

Stave 5:

E|--------------------------------------------------------------------------------------------------
B|--7-9--7-9--7----------7-9--7-9--7----------7-9--7-9--7----------7-9--7-9--7-9--5--5-17-----------
G|--7-9--7-9--7--5-------7-9--7-9--7--5-------7-9--7-9--7--5-------7-9--7-9--7-9--5--4-16-----------
D|------------------7p5------------------7p5------------------7p5-----------------------------------
A|--------------------------------------------------------------------------------------------------
E|--------------------------------------------------------------------------------------------------

http://www.guitartabcreator.com
Guitar Tab Creator is intended to store guitar tab created through the tool. It currently does not support in-line text editing. Any text you place in here will be lost. If you need to comment on your tab, please use the "Tab Notes" section located below.