Sound will begin in 5 seconds

Snowglobe-Lead

Chords
01234567891011121314151617181920212223
E
B
G
D
A
E
B
0 1 2 3 4 5 6 7 8 9 10 11 12 13 14 15 16 17 18 19 20 21 22 23
Song Science #1: How Pros Use 6 Chords to Write Hit Songs
(/) Slide Up  (\) Slide Down  (h) Hammer On  (p) Pull Off  (b) Bend (r) Release (v) Vibrato

Stave 1:

E|--12--------------13p12------------------------------------------12--------------13p12------------------
B|------12------12---------12------13--------------13------------------12------12---------12------13------
G|----------12-----------------12------12------12------12------12----------12-----------------12------12--
D|-----------------------------------------10--------------10---------------------------------------------
A|--------------------------------------------------------------------------------------------------------
D|--------------------------------------------------------------------------------------------------------

Stave 2:

E|------10--------------12-------------------------------------------------------------------------------
B|--13------13--------------12------12--13p12------12--13p12--10--------------8--------8-----------------
G|--------------12--------------12-------------12-----------------10------10-----8--------------------8--
D|------------------10------------------------------------------------10------------8-----------8h10-----
A|-------------------------------------------------------------------------------------------------------
D|-------------------------------------------------------------------------------------------------------

Stave 3:

E|------------------------------------------------------------------------
B|------------------------11----------------------------------------------
G|-----------8h10--10b12------10b12b10p8------8------8---------7-----7h8--
D|-----8h10-------------------------------10-----10-----10--8-----8-------
A|------------------------------------------------------------------------
D|------------------------------------------------------------------------

Stave 4:

E|-----------------------------------------------------------------
B|-----------------------------------3-----------------------------
G|-----5-----5h7--8p7p5-----5-----5-----------2-----0h2--3p2p0-----
D|--6-----6--------------3-----3-----------0-----0-----------------
A|--------------------------------------------------------------0--
D|--------------------------------------------------------------0--

http://www.guitartabcreator.com
Guitar Tab Creator is intended to store guitar tab created through the tool. It currently does not support in-line text editing. Any text you place in here will be lost. If you need to comment on your tab, please use the "Tab Notes" section located below.