Sound will begin in 5 seconds

New Song

Chords
01234567891011121314151617181920212223
E
B
G
D
A
E
B
0 1 2 3 4 5 6 7 8 9 10 11 12 13 14 15 16 17 18 19 20 21 22 23
Song Science #1: How Pros Use 6 Chords to Write Hit Songs
(/) Slide Up  (\) Slide Down  (h) Hammer On  (p) Pull Off  (b) Bend (r) Release (v) Vibrato

Stave 1:

E|-----7--7-----7--7---------------------------
B|-----8--7-----8--7---------------------------
G|-----9--9-----9--9--5--7--5--5---------------
D|-----9--9-----9--9-----------5--2--10--9--2--
A|-----7--7-----7--7--7--7--7--7--2--10--9--2--
E|--0--------0--------------------0--0---0--0--

Stave 2:

E|-----------------
B|-----------------
G|-----------------
D|--14--12--10--9--
A|--12--10--8---7--
E|-----------------

Stave 3:

E|---------------------------------------------------------------------------------------
B|---------------------------------------------------------------------------------------
G|---------------------------------------------------------------------------0--0--0--0--
D|--17--------------12-----------------------17--------------12--------------4--5--7--5--
A|--15----------12--10--------------7--8--5--15----------12--10--------------5--7--9--7--
E|------12--13----------13--12--10--5--6--3------12--13----------13--12--10--------------

Stave 4:

E|-------------------------------------------
B|-------------------------------------------
G|----------9--------------------------------
D|--10--12-----7--8--7--8--5--7--8--7--8--5--
A|--7---7---7--7--8--7--8--5--7--8--7--8--5--
E|-------------5--0--5--0--0--5--0--5--0--0--

Stave 5:

E|--------------------------------
B|--------------------------------
G|--------------2-----------------
D|--4--7--5--4--2--4-----4--7--5--
A|--2--5--3--2--0--2--5--2--5--3--
E|--------------------3-----------

Stave 6:

E|--------------------------------------------------------------------
B|--------------------------------------------------------------------
G|-----------------------4--5--------4--5-----------------------4--5--
D|--2-----2--------5--7--5--5--5--7--5--5--2-----2--------5--7--5--5--
A|--2--5--2--5--7--3--3--3--3--3--3--3--3--2--5--2--5--7--3--3--3--3--
E|--0--3--0--3--5--------------------------0--3--0--3--5--------------

Stave 7:

E|--------------------------
B|--------------------------
G|--0--0--0--0--0--0--0--0--
D|--4--2--7--5--4--2--7--5--
A|--5--3--9--7--5--3--9--7--
E|--------------------------

http://www.guitartabcreator.com
Guitar Tab Creator is intended to store guitar tab created through the tool. It currently does not support in-line text editing. Any text you place in here will be lost. If you need to comment on your tab, please use the "Tab Notes" section located below.