killing in the name of

01234567891011121314151617181920212223
E
B
G
D
A
E
B
0 1 2 3 4 5 6 7 8 9 10 11 12 13 14 15 16 17 18 19 20 21 22 23
(/) Slide Up  (\) Slide Down  (h) Hammer On  (p) Pull Off  (b) Bend (r) Release (v) Vibrato

Stave 1:

E|--------------|--------------------|--------------------|--------------------|--------------------
B|--------------|--------------------|--------------------|--------------------|--------------------
G|--------------|--------------------|--------------------|--------------------|--------------------
D|--------------|--------------------|--------------------|--------------------|--------------------
A|--------------|--------------------|--------------------|--------------------|--------------------
D|--0--0--0--0--|--0--0--0--1--1--1--|--0--0--0--1--1--1--|--0--0--0--1--1--1--|--0--0--0--1--1--1--

Stave 2: x2

E|---------------------------|---------------------------|---------------------------|----------------------
B|---------------------------|---------------------------|---------------------------|----------------------
G|-------------------11--12--|-------------------11--12--|-------------------11--12--|-------------------12b
D|-----------11--12----------|-----------11--12----------|-----------11--12----------|-----------11--12-----
A|---------------------------|---------------------------|---------------------------|----------------------
D|--0--0--0------------------|--0--0--0------------------|--0--0--0------------------|--0--0--0-------------

Stave 3:

E|--------------------|--------------------|--------------------|----------------
B|--------------------|--------------------|--------------------|-----------4----
G|--------------------|--------------------|--------------------|--------------6b
D|--------------------|--------------------|--------------------|----------------
A|-----------6--6--6--|-----------6--6--6--|-----------6--6--6--|----------------
D|--0--0--0-----------|--0--0--0-----------|--0--0--0-----------|--0--0--0-------

Stave 4: x4

E|------------------------------
B|------------------------------
G|------------------------------
D|----------3h4-----------------
A|-----3h5-------5--0--2--3--2--
D|--0---------------0--2--3--2--

Stave 5: x8 - mellow

E|------------------------------
B|------------------------------
G|------------------------------
D|----------3h4-----------------
A|-----3h5-------5--0--2--3--2--
D|--0---------------0--2--3--2--

Stave 6:

E|--------------------------------------------------------
B|--------------------------------------------------------
G|----------4v----------3v----------2v--------------------
D|--------------------------------------------------------
A|-----3h5---------3h5---------3h5------0--2--3--2--3--2--
D|--0-----------0-----------0-----------0--2--3--2--3--2--

							http://www.guitartabcreator.com
Chords

Instruments
{"strings":[[[".",".",".",".","|",".",".",".",".",".",".","|",".",".",".",".",".",".","|",".",".",".",".",".",".","|",".",".",".",".",".","."],[".",".",".",".","|",".",".",".",".",".",".","|",".",".",".",".",".",".","|",".",".",".",".",".",".","|",".",".",".",".",".","."],[".",".",".",".","|",".",".",".",".",".",".","|",".",".",".",".",".",".","|",".",".",".",".",".",".","|",".",".",".",".",".","."],[".",".",".",".","|",".",".",".",".",".",".","|",".",".",".",".",".",".","|",".",".",".",".",".",".","|",".",".",".",".",".","."],[".",".",".",".","|",".",".",".",".",".",".","|",".",".",".",".",".",".","|",".",".",".",".",".",".","|",".",".",".",".",".","."],[0,0,0,0,"|",0,0,0,1,1,1,"|",0,0,0,1,1,1,"|",0,0,0,1,1,1,"|",0,0,0,1,1,1]],[[".",".",".",".",".",".",".","|",".",".",".",".",".",".",".","|",".",".",".",".",".",".",".","|",".",".",".",".",".",".","."],[".",".",".",".",".",".",".","|",".",".",".",".",".",".",".","|",".",".",".",".",".",".",".","|",".",".",".",".",".",".","."],[".",".",".",".",".",11,12,"|",".",".",".",".",".",11,12,"|",".",".",".",".",".",11,12,"|",".",".",".",".",".",12,"b"],[".",".",".",11,12,".",".","|",".",".",".",11,12,".",".","|",".",".",".",11,12,".",".","|",".",".",".",11,12,".","."],[".",".",".",".",".",".",".","|",".",".",".",".",".",".",".","|",".",".",".",".",".",".",".","|",".",".",".",".",".",".","."],[0,0,0,".",".",".",".","|",0,0,0,".",".",".",".","|",0,0,0,".",".",".",".","|",0,0,0,".",".",".","."]],[[".",".",".",".",".",".","|",".",".",".",".",".",".","|",".",".",".",".",".",".","|",".",".",".",".",".","."],[".",".",".",".",".",".","|",".",".",".",".",".",".","|",".",".",".",".",".",".","|",".",".",".",4,".","."],[".",".",".",".",".",".","|",".",".",".",".",".",".","|",".",".",".",".",".",".","|",".",".",".",".",6,"b"],[".",".",".",".",".",".","|",".",".",".",".",".",".","|",".",".",".",".",".",".","|",".",".",".",".",".","."],[".",".",".",6,6,6,"|",".",".",".",6,6,6,"|",".",".",".",6,6,6,"|",".",".",".",".",".","."],[0,0,0,".",".",".","|",0,0,0,".",".",".","|",0,0,0,".",".",".","|",0,0,0,".",".","."]],[[".",".",".",".",".",".",".",".",".",".",".","."],[".",".",".",".",".",".",".",".",".",".",".","."],[".",".",".",".",".",".",".",".",".",".",".","."],[".",".",".",".",3,"h",4,".",".",".",".","."],[".",3,"h",5,".",".",".",5,0,2,3,2],[0,".",".",".",".",".",".",".",0,2,3,2]],[[".",".",".",".",".",".",".",".",".",".",".","."],[".",".",".",".",".",".",".",".",".",".",".","."],[".",".",".",".",".",".",".",".",".",".",".","."],[".",".",".",".",3,"h",4,".",".",".",".","."],[".",3,"h",5,".",".",".",5,0,2,3,2],[0,".",".",".",".",".",".",".",0,2,3,2]],[[".",".",".",".",".",".",".",".",".",".",".",".",".",".",".",".",".",".",".",".",".",".",".","."],[".",".",".",".",".",".",".",".",".",".",".",".",".",".",".",".",".",".",".",".",".",".",".","."],[".",".",".",".",4,"v",".",".",".",".",3,"v",".",".",".",".",2,"v",".",".",".",".",".","."],[".",".",".",".",".",".",".",".",".",".",".",".",".",".",".",".",".",".",".",".",".",".",".","."],[".",3,"h",5,".",".",".",3,"h",5,".",".",".",3,"h",5,".",".",0,2,3,2,3,2],[0,".",".",".",".",".",0,".",".",".",".",".",0,".",".",".",".",".",0,2,3,2,3,2]]],"numberofstrings":6,"notes":["E","B","G","D","A","D"],"capo":0,"stringnotes":["E3","B2","G2","D2","A1","D1"],"comments":["Stave 1:","Stave 2: x2","Stave 3:","Stave 4: x4","Stave 5: x8 - mellow","Stave 6:"],"timing":[[null,null,null,null,null,null,null,null,null,null,null,null,null,null,null,null,"W","W","W",null,null,null,null,null,null,null,null,null,null,"W","W","W",null,null,null,null,null,null,null],[null,null,null,null,null,null,null,null,null,null,null,null,null,"W","W","W","W","W","W","W","W","W","W",null,"W","W","W","W","W","W"],["W","W","W","W","W","W",null,"W","W","W","W","W","W",null,"W","W","W","W","W","W",null,"W","W","W","W","W"],["W","W","W","W","W",null,"W","W","W","W","W","W"],["W","W",null,"W","W","W","W","W","W","W","W","W"],["W","W",null,"W","W",null,"W","W",null,"W","W",null,"W","W",null,"W","W",null,"W","W","W","W","W","W"]],"timingvisible":false,"tabcounter":24,"stave":5,"totalstaves":6,"instrument":"6guitar","selectedtuning":"Drop D","version":"13"}

Member for

1 month 2 weeks
Submitted by foo on Thu, 2021-03-04 03:04