Sound will begin in 5 seconds

The Way

Chords
01234567891011121314151617181920212223
E
B
G
D
A
E
B
0 1 2 3 4 5 6 7 8 9 10 11 12 13 14 15 16 17 18 19 20 21 22 23
(/) Slide Up  (\) Slide Down  (h) Hammer On  (p) Pull Off  (b) Bend (r) Release (v) Vibrato

Stave 1:

E|-----------------------------------------------------------------------------------------------------
B|----------------------------------------------2--2--2--2-----------------------2h5--2-----2----------
G|----------------------------------------2--4--------------4--4--4--2--2--2-------------4-----4--2--4b
D|----------------------------------2--4--------------------------------------4------------------------
A|--------------------------2--4\4---------------------------------------------------------------------
E|--14/2--2--2--2--5--5--5-----------------------------------------------------------------------------

Stave 2:

E|------------------------------------------------------------------|--
B|-------2--5--2--7--9--9--10--10b9--10--7--5--5h7p5/2--2h5p2-------|--
G|--4b4--------------------------------------------------------4--4b|--
D|------------------------------------------------------------------|--
A|------------------------------------------------------------------|--
E|------------------------------------------------------------------|--

Stave 3:

E|-----------------------------------------------------7--9--9b7-------7------------12--------------
B|----------------------------------------------2--10------------------------12b12------12b12b7--7--
G|----------------------------------------2--4--------------------9b9-----9-------------------6--6--
D|----------------------------------2--4------------------------------------------------------4--4--
A|--------------------------2--4\4------------------------------------------------------------4--4--
E|--2--2--2--2--5--5--5--5--------------------------------------------------------------------------

Stave 4:

E|---------------------------------------|--
B|--7--7---------------------------------|--
G|--6--6---------------------------------|--
D|--4--4------------------2--4-----------|--
A|--4--4\4--2--------2h4--------2--------|--
E|-------------5--2----------------5--2--|--

http://www.guitartabcreator.com
Guitar Tab Creator is intended to store guitar tab created through the tool. It currently does not support in-line text editing. Any text you place in here will be lost. If you need to comment on your tab, please use the "Tab Notes" section located below.