Sound will begin in 5 seconds

Sa akin puso

Chords
01234567891011121314151617181920212223
E
B
G
D
A
E
B
0 1 2 3 4 5 6 7 8 9 10 11 12 13 14 15 16 17 18 19 20 21 22 23
Song Science #1: How Pros Use 6 Chords to Write Hit Songs
(/) Slide Up  (\) Slide Down  (h) Hammer On  (p) Pull Off  (b) Bend (r) Release (v) Vibrato

Stave 1:

E|--------------0--------------0--------------0--------------0--
B|-----------0--------------0--------------0--------------0-----
G|--------6--------------6--------------6--------------6--------
D|-----6--------------6--------------6--------------6-----------
A|--0--------------0--------------5--------------5--------------
E|--------------------------------------------------------------

Stave 2:

E|--------------------------0--------------------------
B|-----------0-----------0--------------5-----------5--
G|--------6-----------6--------------4-----------4-----
D|-----6-----------6--------------6-----------6--------
A|--0-----------0--------------4-----------4-----------
E|-----------------------------------------------------

Stave 3:

E|-----------------------------------0--------------0--
B|-----------6-----7--------------0--------------0-----
G|--------5--------7-----------6--------------6--------
D|-----7-----------6--------6--------------6-----------
A|--5--------------7-----0--------------0--------------
E|-----------------------------------------------------

Stave 4:

E|--------------------------------------------------
B|-----------0-----------0-----------5-----------5--
G|--------6-----------6-----------4-----------4-----
D|-----6-----------6-----------6-----------6--------
A|--0-----------0-----------4-----------4-----------
E|--------------------------------------------------

Stave 5:

E|-----------------------------------
B|-----------6-----7--------------0--
G|--------5--------7-----------6-----
D|-----7-----------6--------6--------
A|--5--------------7-----0-----------
E|-----------------------------------

Stave 6:

E|-----------------
B|--------1-----5--
G|--------------4--
D|-----3--------6--
A|--1-----------4--
E|-----------------

Stave 7:

E|--------------------------------------------------
B|-----------6-----------7-----------5-----------0--
G|--------5-----------7-----------4-----------2-----
D|-----7-----------6-----------6-----------2--------
A|--5-----------7-----------4-----------------------
E|--------------------------------------2-----------

Stave 8:

E|-----------------------------
B|--------------3-----------7--
G|-----------2-----------7-----
D|--------4-----------6--------
A|--0--2-----------7-----------
E|-----------------------------

Stave 9:

E|--------------------0-----------
B|--6-----5-----2-----0-----------
G|--5-----4-----1-----6-----------
D|--7-----6-----3-----6-----------
A|--5-----4-----1-----0-----2--4--
E|--------------------------------

Stave 10:

E|--------------------------------------------------
B|-----------6-----------7-----------5-----------0--
G|--------5-----------7-----------4-----------2-----
D|-----7-----------6-----------6-----------2--------
A|--5-----------7-----------4-----------------------
E|--------------------------------------2-----------

Stave 11:

E|--------------------------------------0--------------0--
B|-----------2-----------7-----------0--------------0-----
G|--------1-----------7-----------6--------------6--------
D|-----3-----------6-----------6--------------6-----------
A|--1-----------7-----------0--------------0--------------
E|--------------------------------------------------------

http://www.guitartabcreator.com
Guitar Tab Creator is intended to store guitar tab created through the tool. It currently does not support in-line text editing. Any text you place in here will be lost. If you need to comment on your tab, please use the "Tab Notes" section located below.