Sound will begin in 5 seconds

uto1

01234567891011121314151617181920212223
E
B
G
D
A
E
B
0 1 2 3 4 5 6 7 8 9 10 11 12 13 14 15 16 17 18 19 20 21 22 23
Song Science #1: How Pros Use 6 Chords to Write Hit Songs
(/) Slide Up  (\) Slide Down  (h) Hammer On  (p) Pull Off  (b) Bend (r) Release (v) Vibrato

Stave 1:

E|----------------------------------------------------------------------
B|----------------------------------------------------------------------
G|----------------------------------------------------------------------
D|-------8-------8----8-----8-----8---8-----8-----8---8-----8-----8---8-
A|-10-10---10-10---10---8-8---8-8---8---7-7---7-7---7---6-6---6-6---6---
E|----------------------------------------------------------------------

Stave 2:

E|---------------------------------------------------------------------------
B|---------------------------------------------------------------------------
G|---------------------------------------------------------------------------
D|-------8-------8----8-----8-----8---8-----10-----10---10-----10---8-10-8-7-
A|-10-10---10-10---10---9-9---9-9---9---8-8----8-8----8----7-7----7----------
E|---------------------------------------------------------------------------

Stave 3:

E|----------------------------------------------------------------------
B|----------------------------------------------------------------------
G|----------------------------------------------------------------------
D|-------8-------8----8-----8-----8---8-----8-----8---8-----8-----8---8-
A|-10-10---10-10---10---8-8---8-8---8---7-7---7-7---7---6-6---6-6---6---
E|----------------------------------------------------------------------

Stave 4:

E|------------------------------------------------------------------------------
B|------------------------------------------------------------------------------
G|---------------------------------------------------------------------7--------
D|-------8-------8----8-----10-----10---10-----12-----12---12-----10-----10-8-7-
A|-10-10---10-10---10---9-9----9-9----9----8-8----8-8----8----7-7----7----------
E|------------------------------------------------------------------------------

Stave 5:

E|------------------------------------------------------------------------------------
B|------------------------------------------------------------------------------------
G|------------------------------------------------------------------------------------
D|-------8-------8----8-----10-----10---10-----12-----12---12-------------------------
A|-10-10---10-10---10---9-9----9-9----9----8-8----8-8----8----10-10-10-10-13-13-15-15-
E|------------------------------------------------------------------------------------

Stave 6:

E|-------------------------------
B|-------------------------------
G|-------------------------------
D|-13-13----13-------------13----
A|-------15----15-13-13-15----15-
E|-------------------------------

Stave 7:

E|-------------------------------------
B|-------------------------------------
G|-------------------------------------
D|-13-13----13----15-------16-15-16-15-
A|-------15----15----------------------
E|-------------------------------------

Stave 8:

E|-------------------------------------------------------------------------------------------------------------
B|-------------------------------------------------------------------------------------------------------------
G|-------------------------------------------------------------------------------------------------------------
D|-13----13-13----13-13----13-13----12-12----12-12----12-12----12-13-12----------------------------------------
A|----15-------15-------15-------15-------15-------15-------15----------13-15-15----15-------15-15----15-15----
E|-------------------------------------------------------------------------------17----17-17-------17-------17-

Stave 9:

E|-------------------------------------------------
B|-------------------------------------------------
G|-------------------------------------------------
D|-------------------------------------------------
A|-------------------------------------------------
E|-13-13-13-13-13-13-13-13-14-14-14-14-14-14-14-14-

http://www.guitartabcreator.com
Guitar Tab Creator is intended to store guitar tab created through the tool. It currently does not support in-line text editing. Any text you place in here will be lost. If you need to comment on your tab, please use the "Tab Notes" section located below.