FINESSE BASS

Chords

01234567891011121314151617181920212223
E
B
G
D
A
E
B
0 1 2 3 4 5 6 7 8 9 10 11 12 13 14 15 16 17 18 19 20 21 22 23
(/) Slide Up  (\) Slide Down  (h) Hammer On  (p) Pull Off  (b) Bend (r) Release (v) Vibrato

estrofa

G|----------------------------------------------------------------------
D|---------------------------------------10-----------------------------
A|-----------6-7-8-------6-8-10-11-10-11--------------6-7-8-------------
E|-9----8-----------------------------------9----8----------------------

pre estribillo

G|------------------------------------------------------------------10-----------------------------
D|-------------------11------------------10-------------------10-----------------------------10----
A|--------8----11-------------------7-10-------6-7-8----11-------------------6-8-10-11-10-11-------
E|---9---------------------6-7-8-------------------------------------------------------------------

Stave 3:

G|-------------------------------------------10-10-----8--------
D|--------11-----------10------10-------------------------------
A|-----------11----------------------8-------------7-6----------
E|-9----9-------9-8----------8------------------------------4-8-

							http://www.guitartabcreator.com
Instruments
{"strings":[[[".","_",".","_",".",".",".","_","_",".",".",".",".",".",".",".",".","_",".","_",".",".",".","_","_","_","_"],[".","_",".","_",".",".",".","_","_",".",".",".",".",".",".",10,".","_",".","_",".",".",".","_","_","_","_"],[".","_",".","_",6,7,8,"_","_",6,8,10,11,10,11,".",".","_",".","_",6,7,8,"_","_","_","_"],[9,"_",8,"_",".",".",".","_","_",".",".",".",".",".",".",".",9,"_",8,"_",".",".",".","_","_","_","_"]],[[".",".","_",".","_",".","_",".","_",".",".",".","_",".",".",".","_",".",".",".","_",".","_",".","_",10,"_","_",".",".",".",".",".",".",".","_"],[".",".","_",".","_",".","_",11,"_",".",".",".","_",".",".",10,"_",".",".",".","_",".","_",10,"_",".","_","_",".",".",".",".",".",".",10,"_"],[".",".","_",8,"_",11,"_",".","_",".",".",".","_",7,10,".","_",6,7,8,"_",11,"_",".","_",".","_","_",6,8,10,11,10,11,".","_"],[".",9,"_",".","_",".","_",".","_",6,7,8,"_",".",".",".","_",".",".",".","_",".","_",".","_",".","_","_",".",".",".",".",".",".",".","_"]],[[".","_",".",".",".",".",".","_",".","_",".",".","_",".","_","_",10,10,".",".",8,"_",".","."],[".","_",".",11,".",".",".","_",10,"_",".",10,"_",".","_","_",".",".",".",".",".","_",".","."],[".","_",".",".",11,".",".","_",".","_",".",".","_",8,"_","_",".",".",7,6,".","_",".","."],[9,"_",9,".",".",9,8,"_",".","_",8,".","_",".","_","_",".",".",".",".",".","_",4,8]]],"numberofstrings":4,"notes":["G","D","A","E"],"capo":0,"stringnotes":["G2","D2","A1","E1"],"comments":["estrofa","pre estribillo","Stave 3:"],"timing":[["W","W","W",null,"W","W","W","W","W","W","W","W","W","W","W","W","W","W","W","W","W","W","W"],[null,"W","W","W","W","W","W","W","W","W","W","W",null,"W","W","W","W","W","W","W",null,"W",null,"W",null,"W",null,null,"W","W","W","W","W","W","W"],["W","W","W","W","W","W","W",null,"W",null,"W","W",null,"W",null,null,"W","W","W","W","W","W","W","W"]],"timingvisible":false,"tabcounter":24,"stave":2,"totalstaves":3,"instrument":"4bass","selectedtuning":"4bass","version":"13"}

Member for

1 month
Submitted by fmatarasso on Thu, 2020-09-24 09:50