Sound will begin in 5 seconds

One For All - Roy Harper

Chords
01234567891011121314151617181920212223
E
B
G
D
A
E
B
0 1 2 3 4 5 6 7 8 9 10 11 12 13 14 15 16 17 18 19 20 21 22 23
(/) Slide Up  (\) Slide Down  (h) Hammer On  (p) Pull Off  (b) Bend (r) Release (v) Vibrato

Capo Fret 2

Stave 1:

D|-----------------0--------------------------------------------------------------------------------------
A|--------------6-----3----------0------------------------------------------------------------------------
G|--------0-----------------0h3-----0--3h5p3--0--0-----0--0-----------------------------------------------
D|-----0-----------0-----0--------------------0-----------0--3h5p3--0--0-----0--0-------0--0--0-----0--0--
A|--------------------------------------------------------------------------------------------------------
D|--5--------5--------5-------5--------5------------5--------5------------5--------0/5-----------5--------

Stave 2:

D|--------------------------------------------------------------------------------------7-----------------
A|-------------------------------------0-----0h3-----------0-------------------0--------------------0-----
G|-------------------------------0-------------------0-------------------0--------------------0-----------
D|-------0--0--0-----0--0-----3-----------3-------3-----------3-------0-----------0--------0-----------0--
A|--------------------------------------------------------------------------------------------------------
D|--0/5-----------5--------3--------3--------3----------3--------3/5--------5-----------5--------5--------

Stave 3:

D|------------------------------------------------------------7-----------------5-----------------
A|--------------0-----0h3-----------0-------------------0-----------------0-----------------0-----
G|--------0-------------------0-------------------0-----------------0-----------------0-----------
D|-----3-----------3-------3-----------3-------0-----------0-----0-----------0-----0-----------0--
A|------------------------------------------------------------------------------------------------
D|--3--------3--------3----------3--------3/5--------5--------5--------5--------5--------5--------

Stave 4:

D|--3----------------------------------2-----------2-----2h3-----------3-----3-----------3p2--
A|--------------1-----1----------1-----------1-------------------1--------1--------1----------
G|--------0-----------------0h2-----------2-----------2-------2-----------------2----------2--
D|-----2-----------2-----0----------0---------------------------------------------------------
A|--3----------------------------------0--------0--------0----------0--------0--------0-------
D|-----------0--------0-------0---------------------------------------------------------------

Stave 5:

D|--0-----------0-----------0-----------0--------
A|--------1-----------1-----------1--------------
G|-----2-----------2-----------2-----------2-----
D|-----------------------------------------------
A|--0--------0-----------0-----------0-----------
D|-----------------------------------------------

Stave 6:

D|----------------------5-----------------------------------5--------------------------------------------------
A|----------------5-----------------0-----3-----------3-----------------3-----1-----------1--------------------
G|----------5-----------------5-----------------0-----------------0-----------------0--------0-----------------
D|-------5-----------5-----5-----------0-----4-----------4-----4-----------4-----2-----------------------------
A|-------------------------------------------------------------------------------------------------------------
D|--0/7--------7--------7--------7--------5--------5--------5--------5--------3--------3-----------------------

Stave 7:

D|--
A|--
G|--
D|--
A|--
D|--

http://www.guitartabcreator.com
Guitar Tab Creator is intended to store guitar tab created through the tool. It currently does not support in-line text editing. Any text you place in here will be lost. If you need to comment on your tab, please use the "Tab Notes" section located below.