One for All part two

Chords

01234567891011121314151617181920212223
E
B
G
D
A
E
B
0 1 2 3 4 5 6 7 8 9 10 11 12 13 14 15 16 17 18 19 20 21 22 23
(/) Slide Up  (\) Slide Down  (h) Hammer On  (p) Pull Off  (b) Bend (r) Release (v) Vibrato

Capo Fret 2

Stave 1:

D|----------------------------------------------------------------------------------
A|----------------------------------------------------------------------------------
G|--2-----4--4/5--4--2--2p0--0h2----------------------------------------------------
D|--------------------------------0--0h2--4--4/5--4--2--2p0-------------------------
A|--------------------------------------------------------------0h2-----2h4p2p0-----
D|----------------------------------------------------------------------------------

Stave 2:

D|--------------------------------------------------------------------------------
A|--------------------------------------------------------------------------------
G|--2--4--4/5--5/7--7--5h7p5--4--5--4h5p4p0--0h2h4-----2p0--2/4--4/5-----5--5-----
D|--------------------------------------------------------------------------------
A|--------------------------------------------------------------------------------
D|--------------------------------------------------------------------------------

							http://www.guitartabcreator.com
Instruments
{"title":"One for All part two","strings":[[[".",".",".",".",".",".",".",".",".",".",".",".",".",".",".",".",".",".",".",".",".",".",".",".",".",".",".",".",".",".",".",".",".",".",".",".",".",".",".","."],[".",".",".",".",".",".",".",".",".",".",".",".",".",".",".",".",".",".",".",".",".",".",".",".",".",".",".",".",".",".",".",".",".",".",".",".",".",".",".","."],[2,".",4,4,"/",5,4,2,2,"p",0,0,"h",2,".",".",".",".",".",".",".",".",".",".",".",".",".",".",".",".",".",".",".",".",".",".",".",".",".","."],[".",".",".",".",".",".",".",".",".",".",".",".",".",".",0,0,"h",2,4,4,"/",5,4,2,2,"p",0,".",".",".",".",".",".",".",".",".",".",".",".","."],[".",".",".",".",".",".",".",".",".",".",".",".",".",".",".",".",".",".",".",".",".",".",".",".",".",".",".",".",0,"h",2,".",2,"h",4,"p",2,"p",0,"."],[".",".",".",".",".",".",".",".",".",".",".",".",".",".",".",".",".",".",".",".",".",".",".",".",".",".",".",".",".",".",".",".",".",".",".",".",".",".",".","."]],[[".",".",".",".",".",".",".",".",".",".",".",".",".",".",".",".",".",".",".",".",".",".",".",".",".",".",".",".",".",".",".",".",".",".",".",".",".",".",".",".",".","."],[".",".",".",".",".",".",".",".",".",".",".",".",".",".",".",".",".",".",".",".",".",".",".",".",".",".",".",".",".",".",".",".",".",".",".",".",".",".",".",".",".","."],[2,4,4,"/",5,5,"/",7,7,5,"h",7,"p",5,4,5,4,"h",5,"p",4,"p",0,0,"h",2,"h",4,".",2,"p",0,2,"/",4,4,"/",5,".",5,5,"."],[".",".",".",".",".",".",".",".",".",".",".",".",".",".",".",".",".",".",".",".",".",".",".",".",".",".",".",".",".",".",".",".",".",".",".",".",".",".",".",".",".","."],[".",".",".",".",".",".",".",".",".",".",".",".",".",".",".",".",".",".",".",".",".",".",".",".",".",".",".",".",".",".",".",".",".",".",".",".",".",".",".",".",".","."],[".",".",".",".",".",".",".",".",".",".",".",".",".",".",".",".",".",".",".",".",".",".",".",".",".",".",".",".",".",".",".",".",".",".",".",".",".",".",".",".",".","."]]],"numberofstrings":6,"notes":["D","A","G","D","A","D","B"],"capo":"2","stringnotes":["D7","A7","G3","D3","A2","D7"],"comments":["Stave 1:","Stave 2:"],"timing":[[null,"W",null,"W","W","W","W","W","W","W","W",null,"W","W","W","W","W",null,"W","W","W",null,"W","W","W","W",null,"W","W","W",null,"W",null,"W",null,"W",null,"W","W","W","W"],[null,"W","W","W",null,"W",null,"W","W","W","W",null,"W",null,"W","W","W","W",null,"W",null,"W",null,"W","W",null,"W",null,"W",null,"W",null,"W",null,"W",null,"W","W",null,"W","W","W"]],"timingvisible":false,"tabcounter":42,"stave":1,"totalstaves":2,"instrument":"6guitar","selectedtuning":"6_standard","version":"13"}

Member for

4 years 10 months
Submitted by flufferjubby on Sun, 2019-09-01 12:26