maj7 RIF

Chords

01234567891011121314151617181920212223
E
B
G
D
A
E
B
0 1 2 3 4 5 6 7 8 9 10 11 12 13 14 15 16 17 18 19 20 21 22 23
(/) Slide Up  (\) Slide Down  (h) Hammer On  (p) Pull Off  (b) Bend (r) Release (v) Vibrato

repeat x2:

E|--------------------------------------------------------------------------
B|---------------9---------------------------------------------9------------
G|--------8v--------------8---------------------------8-----------------8v--
D|-----9------9--------9--------9--11-----11--11--11--------9--------9------
A|--------------------------------------------------------------------------
E|--------------------------------------------------------------------------

Stave 2:

E|---------------------------------------------------------------------
B|--------12--------9--------------------------------------9-----------
G|---------------------------11--11--11--8--------8-----------------8--
D|-----9---------9--------9--------------------9--------9--------9-----
A|---------------------------------------------------------------------
E|---------------------------------------------------------------------

Stave 3:

E|------------------------------------------------------------------------
B|--------12--------9--------------------9--------------------------------
G|---------------------------11--11--11-----------8-----------------------
D|-----9---------9--------9--------------------9--------9--11--11--11--9--
A|------------------------------------------------------------------------
E|------------------------------------------------------------------------

							http://www.guitartabcreator.com
Instruments
{"strings":[[[".",".",".",".",".",".",".","_",".",".",".",".",".",".",".",".",".",".",".",".",".",".",".","."],[".",".",".",".",".",9,".","_",".",".",".",".",".",".",".",".",".",".",".",9,".",".",".","."],[".",".",8,"v",".",".",".","_",8,".",".",".",".",".",".",".",8,".",".",".",".",".",8,"v"],[".",9,".",".",9,".",".",9,".",".",9,11,".",11,11,11,".",".",9,".",".",9,".","."],[".",".",".",".",".",".",".","_",".",".",".",".",".",".",".",".",".",".",".",".",".",".",".","."],[".",".",".",".",".",".",".","_",".",".",".",".",".",".",".",".",".",".",".",".",".",".",".","."]],[[".",".",".",".",".",".",".",".",".",".",".",".",".",".",".",".",".",".",".",".","."],[".",".",12,".",".",9,".",".",".",".",".",".",".",".",".",".",".",9,".",".","."],[".",".",".",".",".",".",".",".",11,11,11,8,".",".",8,".",".",".",".",".",8],[".",9,".",".",9,".",".",9,".",".",".",".",".",9,".",".",9,".",".",9,"."],[".",".",".",".",".",".",".",".",".",".",".",".",".",".",".",".",".",".",".",".","."],[".",".",".",".",".",".",".",".",".",".",".",".",".",".",".",".",".",".",".",".","."]],[[".",".",".",".",".",".",".",".",".",".",".",".",".",".",".",".",".",".",".",".","."],[".",".",12,".",".",9,".",".",".",".",".",9,".",".",".",".",".",".",".",".","."],[".",".",".",".",".",".",".",".",11,11,11,".",".",".",8,".",".",".",".",".","."],[".",9,".",".",9,".",".",9,".",".",".",".",".",9,".",".",9,11,11,11,9],[".",".",".",".",".",".",".",".",".",".",".",".",".",".",".",".",".",".",".",".","."],[".",".",".",".",".",".",".",".",".",".",".",".",".",".",".",".",".",".",".",".","."]]],"numberofstrings":6,"notes":["E","B","G","D","A","E","B"],"capo":0,"stringnotes":["E4","B3","G3","D3","A2","E2"],"comments":["repeat x2:","Stave 2:","Stave 3:"],"timing":[[null,null,"W","W",null,"W","W","W","W","W","W","W","W",null,"W","W","W","W","W",null,"W",null,"W","W","W"],[null,null,"W","W",null,"W","W","W","W","W","W","W","W",null,null,"W","W","W","W",null,"W","W"],[null,null,"W","W","W","W","W",null,"W","W","W","W","W",null,"W","W",null,"W","W","W","W","W"]],"timingvisible":false,"tabcounter":21,"stave":2,"totalstaves":3,"instrument":"6guitar","selectedtuning":"6_standard","version":"13"}

Member for

1 month 3 weeks
Submitted by fjc on Sat, 2020-10-24 17:29