Sound will begin in 5 seconds

The Futurescoper Trilogy Weezer

01234567891011121314151617181920212223
E
B
G
D
A
E
B
0 1 2 3 4 5 6 7 8 9 10 11 12 13 14 15 16 17 18 19 20 21 22 23
Song Science #1: How Pros Use 6 Chords to Write Hit Songs
(/) Slide Up  (\) Slide Down  (h) Hammer On  (p) Pull Off  (b) Bend (r) Release (v) Vibrato

Stave 1:

E|--------------------------------
B|--------------------------------
G|--------------------------------
D|--------------------------------
A|--5--4--2--1--2-----------------
E|-----------------2--3--0--6--2--

Stave 2:

E|----------------------------------------
B|----------------------------------------
G|----------------------------------------
D|----------------------------------------
A|--5--4--2--1--2--------------1h2p1h2p1--
E|-----------------2--3--0--6-------------

Stave 3:

E|------------------------------------------
B|--15--14--12--11--12----------------------
G|----------------------11--12------15--11--
D|------------------------------14----------
A|------------------------------------------
E|------------------------------------------

Stave 4:

E|--------------------------------------------------
B|--15--14--12--11--12--------------11h12p11h12p11--
G|----------------------11--12----------------------
D|------------------------------14------------------
A|--------------------------------------------------
E|--------------------------------------------------

Stave 5:

E|-----------------------------------------------------------------------------------------------------
B|-----------------------------------------------------------------------------------------------------
G|-------------6h7p6-----6h7p6--------9/11--11--11--11--9/11--11--11--11--11--11b12--11v--\9--7p6h7p6--
D|--4/9-----9-------------------8--9-------------------------------------------------------------------
A|-----------------------------------------------------------------------------------------------------
E|-----------------------------------------------------------------------------------------------------

Stave 6:

E|---------------------------------------------------
B|-------12p10h12v--10p8h10v--8p7h8--8p5--7b8--8--7--
G|---------------------------------------------------
D|--4\9----------------------------------------------
A|---------------------------------------------------
E|---------------------------------------------------

Stave 7:

E|------------------------------------14----------------------------------------------------------------
B|--12p10h12--14p12h14--14b15b14--12------14b15b14--17b19--17p15h17--17b19--17p15--15--14--12--10--12v--
G|------------------------------------------------------------------------------------------------------
D|------------------------------------------------------------------------------------------------------
A|------------------------------------------------------------------------------------------------------
E|------------------------------------------------------------------------------------------------------

Stave 8:

E|-----------------------------
B|--10--12--12--12/15--12--12--
G|-----------------------------
D|-----------------------------
A|-----------------------------
E|-----------------------------

http://www.guitartabcreator.com
Guitar Tab Creator is intended to store guitar tab created through the tool. It currently does not support in-line text editing. Any text you place in here will be lost. If you need to comment on your tab, please use the "Tab Notes" section located below.