More than a Feeling Tabs

01234567891011121314151617181920212223
E
B
G
D
A
E
B
0 1 2 3 4 5 6 7 8 9 10 11 12 13 14 15 16 17 18 19 20 21 22 23
(/) Slide Up  (\) Slide Down  (h) Hammer On  (p) Pull Off  (b) Bend (r) Release (v) Vibrato

Stave 1:

E|-----------------------------------------
B|-----------------------------------------
G|-----------------------------------------
D|-----------------------------------------
A|--3-----2-----3--2--0-----3--2--0--2--0--
E|-----------------------------------------

Stave 2:

E|-----------3--2-----------3--------3--------|--
B|--------3--------3--------------------3-----|--
G|-----2--------------0--------3-----------0--|--
D|--0-----------------------------------------|--
A|-----------------------3--------2-----------|--
E|--------------------------------------------|--

Stave 3:

E|-----------------------------------------------------
B|-----------------------------------------------------
G|-----------------------------------------------------
D|-----------------------------------------------------
A|--3-----2-----3--2--0-----0--2--0-----3--2--0--2--0--
E|-----------------------------------------------------

							http://www.guitartabcreator.com
Chords

Instruments
{"strings":[[[".","_",".","_",".",".",".","_",".",".",".",".","."],[".","_",".","_",".",".",".","_",".",".",".",".","."],[".","_",".","_",".",".",".","_",".",".",".",".","."],[".","_",".","_",".",".",".","_",".",".",".",".","."],[3,"_",2,"_",3,2,0,"_",3,2,0,2,0],[".","_",".","_",".",".",".","_",".",".",".",".","."]],[[".",".",".",3,2,".",".",".",3,".",".",3,".",".","|"],[".",".",3,".",".",3,".",".",".",".",".",".",3,".","|"],[".",2,".",".",".",".",0,".",".",3,".",".",".",0,"|"],[0,".",".",".",".",".",".",".",".",".",".",".",".",".","|"],[".",".",".",".",".",".",".",3,".",".",2,".",".",".","|"],[".",".",".",".",".",".",".",".",".",".",".",".",".",".","|"]],[[".","_",".","_",".",".",".","_",".",".",".","_",".",".",".",".","."],[".","_",".","_",".",".",".","_",".",".",".","_",".",".",".",".","."],[".","_",".","_",".",".",".","_",".",".",".","_",".",".",".",".","."],[".","_",".","_",".",".",".","_",".",".",".","_",".",".",".",".","."],[3,"_",2,"_",3,2,0,"_",0,2,0,"_",3,2,0,2,0],[".","_",".","_",".",".",".","_",".",".",".","_",".",".",".",".","."]]],"numberofstrings":6,"notes":["E","B","G","D","A","E","B"],"capo":0,"stringnotes":["E4","B3","G3","D3","A2","E2"],"comments":["Stave 1:","Stave 2:","Stave 3:"],"timing":[["W",null,"W",null,"W","W","W","W","W","W","W","W","W"],["W","W","W","W","W","W","W","W","W","W","W","W","W","W"],["W",null,"W",null,"W","W","W",null,"W","W","W",null,"W","W","W","W","W"]],"timingvisible":false,"tabcounter":17,"stave":2,"totalstaves":3,"instrument":"6guitar","selectedtuning":"6_standard","version":"13"}

Member for

2 years 6 months
Submitted by fischeja on Fri, 2020-12-04 15:20