Star City Stuff #1

Chords

01234567891011121314151617181920212223
E
B
G
D
A
E
B
0 1 2 3 4 5 6 7 8 9 10 11 12 13 14 15 16 17 18 19 20 21 22 23
(/) Slide Up  (\) Slide Down  (h) Hammer On  (p) Pull Off  (b) Bend (r) Release (v) Vibrato

Verse

G|-------------------------------------------------------------------------------------------------
D|-------------------------------------------------------------------------------------------------
A|--------------------------1-----1--1-----1--1--1-----2-----2--2-----2--2--2-----4--4-----4h6--4--
E|--2-----2--2-----2--2--2-------------------------------------------------------------------------

Variation 1

G|-----------------------------------3--------------------------4--------------------------6--------
D|-----------4--------------------------------------------------------------------------6-----6-----
A|--------------------------1-----1--------1--1--1-----2-----2--------2--2--2-----4--------------4--
E|--2-----2--------2--2--2--------------------------------------------------------------------------

Variation 2

G|----------------------------------------------------------------------------------------------------------------------
D|----------------------------------------------------------------------------------------------------------------------
A|--------------------------1-----1--1-----1--1--1-----2-----2--2-----2--2--2-----4--4-----4h6--4--0--------------------
E|--2-----2--2-----2--2--2----------------------------------------------------------------------------4-----3-----------

Ending

G|--------------------------------------------------------------------------------------------------------
D|--------------------------------------------------------------------------------------------------------
A|--------------------------1--1--1--1--1--1--1--1--1--2--2--2--2--2--2--2--2--2--4--4--4--4--6--4--4-----
E|--2--2--2--2--2--2--2--2-----------------------------------------------------------------------------2--

							http://www.guitartabcreator.com
Tab Notes

BPM = 182, 4/4.

Instruments
{"strings":[[[".","_",".",".",".",".",".",".",".",".",".",".",".",".",".",".",".",".",".",".",".",".",".",".",".",".",".",".",".",".",".",".","."],[".","_",".",".",".",".",".",".",".",".",".",".",".",".",".",".",".",".",".",".",".",".",".",".",".",".",".",".",".",".",".",".","."],[".","_",".",".",".",".",".",".",1,".",1,1,".",1,1,1,".",2,".",2,2,".",2,2,2,".",4,4,".",4,"h",6,4],[2,".",2,2,".",2,2,2,".",".",".",".",".",".",".",".",".",".",".",".",".",".",".",".",".",".",".",".",".",".",".",".","."]],[[".",".",".",".",".",".",".",".",".",".",".",3,".",".",".",".",".",".",".",".",4,".",".",".",".",".",".",".",".",6,".","."],[".",".",".",4,".",".",".",".",".",".",".",".",".",".",".",".",".",".",".",".",".",".",".",".",".",".",".",".",6,".",6,"."],[".",".",".",".",".",".",".",".",1,".",1,".",".",1,1,1,".",2,".",2,".",".",2,2,2,".",4,".",".",".",".",4],[2,".",2,".",".",2,2,2,".",".",".",".",".",".",".",".",".",".",".",".",".",".",".",".",".",".",".",".",".",".",".","."]],[[".",".",".",".",".",".",".",".",".",".",".",".",".",".",".",".",".",".",".",".",".",".",".",".",".",".",".",".",".",".",".",".",".",".",".",".",".",".",".","."],[".",".",".",".",".",".",".",".",".",".",".",".",".",".",".",".",".",".",".",".",".",".",".",".",".",".",".",".",".",".",".",".",".",".",".",".",".",".",".","."],[".",".",".",".",".",".",".",".",1,".",1,1,".",1,1,1,".",2,".",2,2,".",2,2,2,".",4,4,".",4,"h",6,4,0,".",".",".",".",".","."],[2,".",2,2,".",2,2,2,".",".",".",".",".",".",".",".",".",".",".",".",".",".",".",".",".",".",".",".",".",".",".",".",".",".",4,".",3,".",".","."]],[[".",".",".",".",".",".",".",".",".",".",".",".",".",".",".",".",".",".",".",".",".",".",".",".",".",".",".",".",".",".",".",".",".","."],[".",".",".",".",".",".",".",".",".",".",".",".",".",".",".",".",".",".",".",".",".",".",".",".",".",".",".",".",".",".",".",".",".","."],[".",".",".",".",".",".",".",".",1,1,1,1,1,1,1,1,1,2,2,2,2,2,2,2,2,2,4,4,4,4,6,4,4,"."],[2,2,2,2,2,2,2,2,".",".",".",".",".",".",".",".",".",".",".",".",".",".",".",".",".",".",".",".",".",".",".",".",".",2]]],"numberofstrings":4,"notes":["G","D","A","E"],"capo":0,"stringnotes":["G2","D2","A1","E1"],"comments":["Verse","Variation 1","Variation 2","Ending"],"timing":[[null,"W","W","W","W",null,"W","W","W","W",null,"W","W",null,"W","W","W",null,"W","W","W","W",null,"W","W","W",null,"W","W","W","W",null,"W","W"],[null,"W",null,"W","W",null,"W","W","W","W",null,"W","W",null,"W","W","W",null,"W",null,"W","W",null,"W","W","W",null,"W","W","W","W","W","W"],[null,"W",null,"W","W",null,"W","W","W","W",null,"W","W",null,"W","W","W",null,"W",null,"W","W",null,"W","W","W",null,null,"W",null,"W",null,"W","W",null,"W",null,"W",null,null,"W"],[null,"W","W","W","W","W","W","W","W","W","W","W","W","W","W","W","W",null,"W","W","W","W","W","W","W","W","W","W","W","W","W","W","W","W","W"]],"timingvisible":false,"tabcounter":34,"stave":3,"totalstaves":4,"instrument":"4bass","selectedtuning":"4bass","version":"13"}

Member for

1 week 1 day
Submitted by firm2000 on Fri, 2020-07-31 21:34