always - keshi

01234567891011121314151617181920212223
E
B
G
D
A
E
B
0 1 2 3 4 5 6 7 8 9 10 11 12 13 14 15 16 17 18 19 20 21 22 23
(/) Slide Up  (\) Slide Down  (h) Hammer On  (p) Pull Off  (b) Bend (r) Release (v) Vibrato

Stave 1:

E|-------------------------3-5-3---------------------------------------|-----------------------|--------------------------|-----------------
B|--3h5--------5-----3-----3-5-3-----1-----1----1--------1----1-----3--|--5-----5-----1-----3--|--5-----5-----1-----3-----|--6-----6--------
G|--4----------4-----3---------------------0h2-----------0h2--------1--|--4-----5-----2-----4--|--4-----5-----2-----4-----|--5-----5--------
D|--5-------5--------2---------------------3------------------------3--|--5-----4-----2-----2--|--5-----4-----2-----2-----|--7--------------
A|--3----3-----------3--3---------------3----------3--3-------------3--|--3-----5-----------3--|--3-----5-----------3-----|--5--5-----------
E|---------------------------------------------------------------------|--------------1--------|--------------1-----------|-----------------

Stave 2:

E|-----------------------------------------------------------------
B|--5-----5-----------5--------6--x--6--------------5-----------5--
G|--4-----4-----------5--------5--x--5--------------4-----------4--
D|--3-----3-----0--x--5--------7--x--7--------------3-----------5--
A|--3--3--------2--x-----------5--x--5--5--x--------------3--x--3--
E|--------------0--x--5--5--x--------------------0--3--------------

							http://www.guitartabcreator.com
Chords

Instruments
{"strings":[[[".",".",".",".",".",".","_",".",".",3,"/",5,"\\",3,"_",".",".",".",".",".",".",".",".",".",".",".",".","_",".","|",".","_",".","_",".","_",".","|",".","_",".","_",".","_",".","_","|",".",".",".","_","."],[3,"h",5,".",".",5,"_",3,".",3,"/",5,"\\",3,"_",1,".",1,".",".",1,".",".",1,".",".",1,"_",3,"|",5,"_",5,"_",1,"_",3,"|",5,"_",5,"_",1,"_",3,"_","|",6,".",6,"_","."],[4,".",".",".",".",4,"_",3,".",".",".",".",".",".","_",".",".",0,"h",2,".",".",".",0,"h",2,".","_",1,"|",4,"_",5,"_",2,"_",4,"|",4,"_",5,"_",2,"_",4,"_","|",5,".",5,"_","."],[5,".",".",".",5,".","_",2,".",".",".",".",".",".","_",".",".",3,".",".",".",".",".",".",".",".",".","_",3,"|",5,"_",4,"_",2,"_",2,"|",5,"_",4,"_",2,"_",2,"_","|",7,".",".","_","."],[3,".",".",3,".",".","_",3,3,".",".",".",".",".","_",".",3,".",".",".",".",3,3,".",".",".",".","_",3,"|",3,"_",5,"_",".","_",3,"|",3,"_",5,"_",".","_",3,"_","|",5,5,".","_","."],[".",".",".",".",".",".","_",".",".",".",".",".",".",".","_",".",".",".",".",".",".",".",".",".",".",".",".","_",".","|",".","_",".","_",1,"_",".","|",".","_",".","_",1,"_",".","_","|",".",".",".","_","."]],[[".",".",".","_",".",".",".",".","_",".","_",".","_",".","_",".",".","_",".","_","."],[5,".",5,"_",".",".",5,".","_",6,"x",6,"_",".","_",".",5,"_",".","_",5],[4,".",4,"_",".",".",5,".","_",5,"x",5,"_",".","_",".",4,"_",".","_",4],[3,".",3,"_",0,"x",5,".","_",7,"x",7,"_",".","_",".",3,"_",".","_",5],[3,3,".","_",2,"x",".",".","_",5,"x",5,5,"x","_",".",".","_",3,"x",3],[".",".",".","_",0,"x",5,5,"x",".","_",".","_",".","_",0,3,"_",".","_","."]]],"numberofstrings":6,"notes":["E","B","G","D","A","E","B"],"capo":0,"stringnotes":["E4","B3","G3","D3","A2","E2"],"comments":["Stave 1:","Stave 2:"],"timing":[[null,null,null,null,null,null,null,null,"W","W","W","W","W","W","W","W","W","W","W","W","W","W","W","W","W","W","W","W","W","W","W","W","W",null,"W",null,"W",null,"W",null,"W",null,"W",null,"W",null,null,"W","W","W","W"],["W","W","W",null,"W","W","W","W",null,"W",null,"W",null,"W","W","W","W",null,"W",null,"W"]],"timingvisible":false,"tabcounter":20,"stave":0,"totalstaves":2,"instrument":"6guitar","selectedtuning":"6_standard","version":"13"}

Member for

1 week 2 days
Submitted by Firedew on Sun, 2021-01-10 19:12