The Darkness Inside lead

01234567891011121314151617181920212223
E
B
G
D
A
E
B
0 1 2 3 4 5 6 7 8 9 10 11 12 13 14 15 16 17 18 19 20 21 22 23
(/) Slide Up  (\) Slide Down  (h) Hammer On  (p) Pull Off  (b) Bend (r) Release (v) Vibrato

Stave 1:

E|--5--------------------5--3--------------------5--------------------5--3--------------------
B|-----3--5--------------------5--------------------3--5--------------------5-----------------
G|-----------0--2--4--0--------------4-----2--0-----------0--2--4--0--------------4-----2--0--
D|--------------------------------2--------------------------------------------2--------------
A|--------------------------------------------------------------------------------------------
E|--------------------------------------------------------------------------------------------

Stave 2:

E|--5----------------5-----------------5--7--
B|-----3--5------/7-----7--5-----5--7--------
G|----------------------------7--------------
D|-------------------------------------------
A|-------------------------------------------
E|-------------------------------------------

Stave 3:

E|--7--7--7--7--7--7--7--7--7--7--7--7--7--7--7--7--8--8--8--8--7--7--7--7--
B|--5--5--5--5--5--5--5--5--5--5--5--5--5--5--5--5--5--5--5--5--5--5--5--5--
G|--------------------------------------------------------------------------
D|--------------------------------------------------------------------------
A|--------------------------------------------------------------------------
E|--------------------------------------------------------------------------

							http://www.guitartabcreator.com
Chords

Instruments
{"strings":[[[5,".",".",".",".",".",".",5,3,".",".",".","_",".",".",5,".",".",".",".",".",".",5,3,".",".",".","_",".","."],[".",3,5,".",".",".",".",".",".",5,".",".","_",".",".",".",3,5,".",".",".",".",".",".",5,".",".","_",".","."],[".",".",".",0,2,4,0,".",".",".",".",4,"_",2,0,".",".",".",0,2,4,0,".",".",".",".",4,"_",2,0],[".",".",".",".",".",".",".",".",".",".",2,".","_",".",".",".",".",".",".",".",".",".",".",".",".",2,".","_",".","."],[".",".",".",".",".",".",".",".",".",".",".",".","_",".",".",".",".",".",".",".",".",".",".",".",".",".",".","_",".","."],[".",".",".",".",".",".",".",".",".",".",".",".","_",".",".",".",".",".",".",".",".",".",".",".",".",".",".","_",".","."]],[[5,".",".","_","_",".",".",5,".",".",".",".",".",5,7],[".",3,5,"_","_","/",7,".",7,5,".",5,7,".","."],[".",".",".","_","_",".",".",".",".",".",7,".",".",".","."],[".",".",".","_","_",".",".",".",".",".",".",".",".",".","."],[".",".",".","_","_",".",".",".",".",".",".",".",".",".","."],[".",".",".","_","_",".",".",".",".",".",".",".",".",".","."]],[[7,7,7,7,7,7,7,7,7,7,7,7,7,7,7,7,8,8,8,8,7,7,7,7],[5,5,5,5,5,5,5,5,5,5,5,5,5,5,5,5,5,5,5,5,5,5,5,5],[".",".",".",".",".",".",".",".",".",".",".",".",".",".",".",".",".",".",".",".",".",".",".","."],[".",".",".",".",".",".",".",".",".",".",".",".",".",".",".",".",".",".",".",".",".",".",".","."],[".",".",".",".",".",".",".",".",".",".",".",".",".",".",".",".",".",".",".",".",".",".",".","."],[".",".",".",".",".",".",".",".",".",".",".",".",".",".",".",".",".",".",".",".",".",".",".","."]]],"numberofstrings":6,"notes":["E","B","G","D","A","E","B"],"capo":0,"stringnotes":["E4","B3","G3","D3","A2","E2"],"comments":["Stave 1:","Stave 2:","Stave 3:"],"timing":[["W","W","W","W","W","W","W","W","W","W","W","W","W","W","W","W","W","W","W","W","W","W","W","W","W","W","W","W","W","W"],["W","W","W","W","W",null,"W","W","W","W","W","W","W","W","W"],["W","W","W","W","W","W","W","W","W","W","W","W","W","W","W","W","W","W","W","W","W","W","W","W"]],"timingvisible":false,"tabcounter":24,"stave":2,"totalstaves":3,"instrument":"6guitar","selectedtuning":"6_standard","version":"13"}

Member for

6 months 4 weeks
Submitted by Firebird on Mon, 2022-01-17 11:14