Sound will begin in 5 seconds

You are Good (Israel Houghton) Bass 5string Tabs

01234567891011121314151617181920212223
E
B
G
D
A
E
B
0 1 2 3 4 5 6 7 8 9 10 11 12 13 14 15 16 17 18 19 20 21 22 23
Song Science #1: How Pros Use 6 Chords to Write Hit Songs
(/) Slide Up  (\) Slide Down  (h) Hammer On  (p) Pull Off  (b) Bend (r) Release (v) Vibrato

Stave 1:

G|------------------------------------------------------------------------------------------
D|------------------------------------------------------------------------------------------
A|--7--------7-----------2-------------------------5----------------------5--7-----7--------
E|-----7--7-----0--2--4-----2----------3--5-----5--------3--4--5--3--5/7--------7-----7--7--
B|-----------------------------0--0/5--------3--------3-------------------------------------

Stave 2:

G|-------------------------------------------------------------------
D|----------------------------------------------------7-----------7--
A|--------4-----2--------2-----2-----5-------------5-----7-----7-----
E|--0--2-----2-----2--2-----2-----2-----5-----5/7-----------5--------
B|-----------------------------------------3-------------------------

Stave 3:

G|------------------------------------------------------
D|------------------------------------------9h11--------
A|-----5--6--7-----7/9--7-------------9/11--------9-----
E|--5-----------7----------7--0--5/7-----------------9--
B|------------------------------------------------------

Stave 4:

G|---------------------------------------------------------------------------------------
D|-------------------7--------------7-----------------6-----7----------------------------
A|--5-------------5-----7-----7--7--------5-----4----------------------------------------
E|-----5-----5/7-----------5-----------5-----5-----4-----5-----5--7----------5--7--------
B|--------3----------------------------------------------------------7--0/7--------7--0--

Stave 5:

G|--------------------------------------
D|--------------------------------------
A|-----3-----3-----3-----3--------------
E|--------------------------------------
B|--1-----1-----1-----1-----3--3--3--3--

http://www.guitartabcreator.com
Guitar Tab Creator is intended to store guitar tab created through the tool. It currently does not support in-line text editing. Any text you place in here will be lost. If you need to comment on your tab, please use the "Tab Notes" section located below.