Get Up Bombay Bicycle Club

01234567891011121314151617181920212223
E
B
G
D
A
E
B
0 1 2 3 4 5 6 7 8 9 10 11 12 13 14 15 16 17 18 19 20 21 22 23
(/) Slide Up  (\) Slide Down  (h) Hammer On  (p) Pull Off  (b) Bend (r) Release (v) Vibrato

Stave 1:

G|--------------------------------------------------------------------------------------------------------------------------
D|--------------------------------------------------------------------------------------------------------------------------
A|--------------------------------------------------------------------------------------------------------------------------
D|--6-----6-----6--6-----6-----6--6-----6-----6--6-----6-----6--1-----1-----1--1-----1-----1--4-----4-----4--4-----4-----4--

Stave 2:

G|--------------------------------------|--------------------------------------|--------------------------------------|--------------------------------------
D|--------------------------------------|--------------------------------------|--------------------------------------|--------------------------------------
A|--------4--6--6--6--4--6--6--4--------|--------4--6--6--6--4--6--6--4--------|--------1--1--------------1--1--------|--------4--4--------------4--4--------
D|--6--8--------------------------8--6--|--6--8--------------------------8--6--|--1--1--------1--1--1--1--------1--1--|--4--4--------4--4--4--4--------4--4--

Stave 3:

G|--------------------------------------
D|--------------------------------------
A|--------4--6--6--6--4--6--4--6--4--6--
D|--6--8--------------------------------

							http://www.guitartabcreator.com
Chords

Instruments
{"strings":[[[".","_",".","_",".",".","_",".","_",".",".","_",".","_",".",".","_",".","_",".",".","_",".","_",".",".","_",".","_",".",".","_",".","_",".",".","_",".","_","."],[".","_",".","_",".",".","_",".","_",".",".","_",".","_",".",".","_",".","_",".",".","_",".","_",".",".","_",".","_",".",".","_",".","_",".",".","_",".","_","."],[".","_",".","_",".",".","_",".","_",".",".","_",".","_",".",".","_",".","_",".",".","_",".","_",".",".","_",".","_",".",".","_",".","_",".",".","_",".","_","."],[6,"_",6,"_",6,6,"_",6,"_",6,6,"_",6,"_",6,6,"_",6,"_",6,1,"_",1,"_",1,1,"_",1,"_",1,4,"_",4,"_",4,4,"_",4,"_",4]],[[".",".",".",".",".",".",".",".",".",".",".",".","|",".",".",".",".",".",".",".",".",".",".",".",".","|",".",".",".",".",".",".",".",".",".",".",".",".","|",".",".",".",".",".",".",".",".",".",".",".","."],[".",".",".",".",".",".",".",".",".",".",".",".","|",".",".",".",".",".",".",".",".",".",".",".",".","|",".",".",".",".",".",".",".",".",".",".",".",".","|",".",".",".",".",".",".",".",".",".",".",".","."],[".",".",4,6,6,6,4,6,6,4,".",".","|",".",".",4,6,6,6,4,6,6,4,".",".","|",".",".",1,1,".",".",".",".",1,1,".",".","|",".",".",4,4,".",".",".",".",4,4,".","."],[6,8,".",".",".",".",".",".",".",".",8,6,"|",6,8,".",".",".",".",".",".",".",".",8,6,"|",1,1,".",".",1,1,1,1,".",".",1,1,"|",4,4,".",".",4,4,4,4,".",".",4,4]],[[".",".",".",".",".",".",".",".",".",".",".","."],[".",".",".",".",".",".",".",".",".",".",".","."],[".",".",4,6,6,6,4,6,4,6,4,6],[6,8,".",".",".",".",".",".",".",".",".","."]]],"numberofstrings":4,"notes":["G","D","A","D"],"capo":0,"stringnotes":["G2","D2","A1","D1"],"comments":["Stave 1:","Stave 2:","Stave 3:"],"timing":[[null,null,null,null,null,null,null,null,null,null,null,null,null,null,null,null,null,null,null,null,null,null,null,null,null,null,null,null,null,null,null,null,null,null,null,null,null,null,null,null],[null,null,null,null,null,null,null,null,null,null,null,null,null,null,null,null,null,null,null,null,null,null,null,null,null,null,null,null,null,null,null,null,null,null,null,null,null,null,null,null,null,null,null,null,null,null,null,null,null,null,null],[null,null,null,null,null,null,null,null,null,null,null,null]],"timingvisible":false,"tabcounter":12,"stave":2,"totalstaves":3,"instrument":"4bass","selectedtuning":"4bass","version":"13"}

Member for

4 years 1 month
Submitted by FinnSomething on Mon, 2020-11-30 11:30