summertime

Chords

01234567891011121314151617181920212223
E
B
G
D
A
E
B
0 1 2 3 4 5 6 7 8 9 10 11 12 13 14 15 16 17 18 19 20 21 22 23
(/) Slide Up  (\) Slide Down  (h) Hammer On  (p) Pull Off  (b) Bend (r) Release (v) Vibrato

Stave 1:

E|----------------------------------------------------------|----------------------------------------------------------|--
B|--15--16--13--16------16--13--16------16--13--16--15--13--|--16--16--15--16--13--16--15--16--13--16--15--16--15--13--|--
G|------------------15--------------15----------------------|----------------------------------------------------------|--
D|----------------------------------------------------------|----------------------------------------------------------|--
A|----------------------------------------------------------|----------------------------------------------------------|--
E|----------------------------------------------------------|----------------------------------------------------------|--

Stave 2:

E|--------------------------------------------------|----------------------------------------------|--------------------------|----------
B|------15--13--15------15------15------15------15--|------16--15--13--16------16--15--16--13--16--|------15--13--15------15--|------15--
G|--14--------------15------14------15------14------|--15------------------15----------------------|--14--------------15------|--14------
D|--------------------------------------------------|----------------------------------------------|--------------------------|----------
A|--------------------------------------------------|----------------------------------------------|--------------------------|----------
E|--------------------------------------------------|----------------------------------------------|--------------------------|----------

							http://www.guitartabcreator.com
Instruments
{"strings":[[[".",".",".",".",".",".",".",".",".",".",".",".",".",".","|",".",".",".",".",".",".",".",".",".",".",".",".",".",".","|"],[15,16,13,16,".",16,13,16,".",16,13,16,15,13,"|",16,16,15,16,13,16,15,16,13,16,15,16,15,13,"|"],[".",".",".",".",15,".",".",".",15,".",".",".",".",".","|",".",".",".",".",".",".",".",".",".",".",".",".",".",".","|"],[".",".",".",".",".",".",".",".",".",".",".",".",".",".","|",".",".",".",".",".",".",".",".",".",".",".",".",".",".","|"],[".",".",".",".",".",".",".",".",".",".",".",".",".",".","|",".",".",".",".",".",".",".",".",".",".",".",".",".",".","|"],[".",".",".",".",".",".",".",".",".",".",".",".",".",".","|",".",".",".",".",".",".",".",".",".",".",".",".",".",".","|"]],[[".",".",".",".",".",".",".",".",".",".",".",".","|",".",".",".",".",".",".",".",".",".",".",".","|",".",".",".",".",".",".","|",".","."],[".",15,13,15,".",15,".",15,".",15,".",15,"|",".",16,15,13,16,".",16,15,16,13,16,"|",".",15,13,15,".",15,"|",".",15],[14,".",".",".",15,".",14,".",15,".",14,".","|",15,".",".",".",".",15,".",".",".",".",".","|",14,".",".",".",15,".","|",14,"."],[".",".",".",".",".",".",".",".",".",".",".",".","|",".",".",".",".",".",".",".",".",".",".",".","|",".",".",".",".",".",".","|",".","."],[".",".",".",".",".",".",".",".",".",".",".",".","|",".",".",".",".",".",".",".",".",".",".",".","|",".",".",".",".",".",".","|",".","."],[".",".",".",".",".",".",".",".",".",".",".",".","|",".",".",".",".",".",".",".",".",".",".",".","|",".",".",".",".",".",".","|",".","."]]],"numberofstrings":6,"notes":["E","B","G","D","A","E","B"],"capo":0,"stringnotes":["E4","B3","G3","D3","A2","E2"],"comments":["Stave 1:","Stave 2:"],"timing":[[null,null,null,null,null,null,null,null,null,null,null,null,null,null,null,null,null,null,null,null,null,null,null,null,null,null,null,null,null],[null,null,null,null,null,null,null,null,null,null,null,null,null,null,null,null,null,null,null,null,null,null,null,null,null,null,null,null,null,null,null,null,null,null]],"timingvisible":false,"tabcounter":34,"stave":1,"totalstaves":2,"instrument":"6guitar","selectedtuning":"6_standard","version":"13"}

Member for

1 week 3 days
Submitted by finneeey on Fri, 2020-05-22 16:01