Sound will begin in 5 seconds

November Rain Solo 1

01234567891011121314151617181920212223
E
B
G
D
A
E
B
0 1 2 3 4 5 6 7 8 9 10 11 12 13 14 15 16 17 18 19 20 21 22 23
Song Science #1: How Pros Use 6 Chords to Write Hit Songs
(/) Slide Up  (\) Slide Down  (h) Hammer On  (p) Pull Off  (b) Bend (r) Release (v) Vibrato

Stave 1:

E|-----------------8-------------------------------8----------------8v-------------
B|--8b10--10r8b10-----10r8--6--8b10r8b10--10r8b10-----10r8--5b6r5v------6r5b6--5v--
G|---------------------------------------------------------------------------------
D|---------------------------------------------------------------------------------
A|---------------------------------------------------------------------------------
E|---------------------------------------------------------------------------------

Stave 2:

E|------------------------------------------8----------------------------------8--8b10r8--10b12r
B|------------8--------------8b10--10r8b10-----10r8--6--8b10r8b10--10r8b10----------------------
G|--7p5--7/9-----9\7v--5------------------------------------------------------------------------
D|----------------------------------------------------------------------------------------------
A|----------------------------------------------------------------------------------------------
E|----------------------------------------------------------------------------------------------

Stave 3:

E|--8--10p8------8----------13p12------13p12------13b15--13v--10--12--13--12h13p12p10--
B|-----------10-----12/13v---------13---------13---------------------------------------
G|-------------------------------------------------------------------------------------
D|-------------------------------------------------------------------------------------
A|-------------------------------------------------------------------------------------
E|-------------------------------------------------------------------------------------

Stave 4:

E|--10--12--13b15r---13--12--13b---12v--19b20v--19--19--19\17--17--17\15--15--15\13--13--
B|---------------------------------------------------------------------------------------
G|---------------------------------------------------------------------------------------
D|---------------------------------------------------------------------------------------
A|---------------------------------------------------------------------------------------
E|---------------------------------------------------------------------------------------

Stave 5:

E|--13p12--12--12h13p12p10--10--13v-----12--13--12--13p12----------12--------------------
B|---------------------------------------------------------15--13------13--15--17p15p13--
G|---------------------------------------------------------------------------------------
D|---------------------------------------------------------------------------------------
A|---------------------------------------------------------------------------------------
E|---------------------------------------------------------------------------------------

Stave 6:

E|------------------------------------------------------------------------------------
B|--15--12h13--12h13p12h13p12----------12----------------------------------------13v--
G|-----------------------------14--12------12--14--10h12p10\9h10p9v-----12p10p9-------
D|------------------------------------------------------------------------------------
A|------------------------------------------------------------------------------------
E|------------------------------------------------------------------------------------

Stave 7:

E|----------------------------------------------15--------------------
B|------------------13v------------------15b17------17r15--13v--b15v--
G|--10h12p10p9--10-------10h12p10p9--10-------------------------------
D|--------------------------------------------------------------------
A|--------------------------------------------------------------------
E|--------------------------------------------------------------------

http://www.guitartabcreator.com
Guitar Tab Creator is intended to store guitar tab created through the tool. It currently does not support in-line text editing. Any text you place in here will be lost. If you need to comment on your tab, please use the "Tab Notes" section located below.