Sound will begin in 5 seconds

Going Home - Mark Knoffler

Chords
01234567891011121314151617181920212223
E
B
G
D
A
E
B
0 1 2 3 4 5 6 7 8 9 10 11 12 13 14 15 16 17 18 19 20 21 22 23
Song Science #1: How Pros Use 6 Chords to Write Hit Songs
(/) Slide Up  (\) Slide Down  (h) Hammer On  (p) Pull Off  (b) Bend (r) Release (v) Vibrato

Stave 1:

E|-----2-----------0--------2-----------------------0--2-----------------5-----5-----------
B|-----3-----3-----------3--------------3--------3--------------3--------------3--3--3--3--
G|--2--2--2-----------2--------2-----2--------2--------------2--------2-----2--2-----------
D|-----4--------4-----------------4--------4--------------4--------4-----------------------
A|-----------------------------------------------------------------------------------------
E|-----------------------------------------------------------------------------------------

Stave 2:

E|--3--2--5-----------4--------5-----------4--5--------5--------4--5--7p5p4-----3-----------
B|--5-----7--------7--------7-----------7-----------7--------7---------------7--------3-----
G|--------6-----6--------6--------6--6-----------6--------6------------------------------0--
D|-----------7---------------------------------------------------------------------0--------
A|------------------------------------------------------------------------------2-----------
E|------------------------------------------------------------------------------------------

Stave 3:

E|--2--------3-----------0--2--3-----3--------2--3--------5p3--2-----------------------------
B|--------3-----0-----0-----------0--------5-----------0----------5--7--------7--5--------7--
G|-----0-----------0-----------0--------4-----------0----------------7-----7-----------7-----
D|-------------------------------------------------------------------7--7-----------7--------
A|-------------------------------------------------------------------------------------------
E|-------------------------------------------------------------------------------------------

Stave 4:

E|----------------------------------------------------------------3-----------2--------3-----
B|--------------------------7--------0--5--------7--8--10p8p7-----------3-----------3--------
G|--7-----7-----7-----7-----7-----6-----------6----------------9-----4-----4-----4--------4--
D|-----7-----7-----7-----7--7--7-----------7-------------------------------------------------
A|----------------------------------------------------------------2--------------------------
E|-------------------------------------------------------------------------------------------

Stave 5:

E|--------0--3-------------------------------------------------------------------------------
B|-----0--------7--------7--5--------7--------------------7-----------5--------7--8--10p8p7--
G|--0-----------------7-----------7-----7-----7--7--7-----6-----6-----------6----------------
D|-----------------7-----------7-----------7-----7-----7--7--7-----5-----5-------------------
A|-------------------------------------------------------------------------------------------
E|-------------------------------------------------------------------------------------------

Stave 6:

E|--------------------------------------------------------------------------------------------
B|--5--3-----------2--------3--------------4-----3-----3--------3--2--------3-----------3-----
G|-----------4-----------4-----------4--------------0--------4-----------------------4-----4--
D|--------4-----4-----4--------4--------4-----4-----------1--------------2-----2--------------
A|--------------------------------------------------------------------------------------------
E|-----4--------------------------4--------------------3--------------3-----------3-----------

Stave 7:

E|-----------------------2---------------------------------------------------------------------
B|-----------3--------------------3--------3--------2--3-----------2--------2h3p2--------------
G|-----------------4-----------4--------4-----4--------------4-----------4---------4-----4--4--
D|--2--0--------4-----4-----4--------4-----------4--------4-----4-----4---------------4--------
A|--------2--------------------------------------------2---------------------------------------
E|---------------------------------------------------------------------------------------------

Stave 8:

E|------------------------------------------------------------------2---------------2/7/5/7--
B|----------------10--10------10/12--12--12h14--12h14p12--12/11--------5--3--5p3h5-----------
G|--1/11--11--11----------11-------------------------------------2---------------------------
D|-------------------------------------------------------------------------------------------
A|-------------------------------------------------------------------------------------------
E|-------------------------------------------------------------------------------------------

Stave 9:

E|------------------------------7h10--7h10p7--5--7--5h7p5--3--5--3h5p3--2--0--------10-----7--
B|--7------------------------8------------------------------------------------3---------7-----
G|-----10--9--7--9--7-----9------------------------------------------------------4------------
D|---------------------9----------------------------------------------------------------------
A|--------------------------------------------------------------------------------------------
E|--------------------------------------------------------------------------------------------

Stave 10:

E|------------------------------------------------7--10--12--10--7--5----------------7--5-----
B|--10--10p7--------10--10--7--8--7--10-----3-----7--10--12--10--7--5-------------7--------7--
G|------------9-----11--11--7--9--7--11-----2----------------------------------7--------------
D|---------------9--------------------------0-------------------------------6-----------------
A|---------------------------------------------------------------------7\5--------------------
E|--------------------------------------------------------------------------------------------

Stave 11:

E|--------------------------------------------------------------------------------------------
B|------------------------------------------------------------------2/12--------------10--10--
G|--7\0-------------------------------------------------------------------11--11--11----------
D|-----------------------------2--4--5--4h5p4--2--0--4----------------------------------------
A|--------------------------2---------------------------2--2----------------------------------
E|-------------------0h2h3--------------------------------------------------------------------

Stave 12:

E|---------------------------------------------------------------------------------------------
B|------10--12--14p12--10---------------------10---------------10-----------7------------------
G|--11---------------------11--------11p9h11------9--9--9p7h9--9------7--9-----7---------------
D|-----------------------------------------------------------------7--------------7--9--9p7h9--
A|---------------------------------------------------------------------------------------------
E|---------------------------------------------------------------------------------------------

Stave 13:

E|---------------------------------------------10--9--7--9p7-------------------------------------
B|-------------------10--10-------------7--10-----------------10--7--10-----------10-------------
G|--6--7--9--11--11----------------7h9-------------------------------9---9--9--9------9--9--9p7--
D|-----------------------------------------------------------------------------------------------
A|-----------------------------------------------------------------------------------------------
E|-----------------------------------------------------------------------------------------------

Stave 14:

E|----------------------------------------------------------10--10--10--10--9-------------------
B|-----------------7--------------7------------------7--10---------------------10--7--12\10/12--
G|--9--------7--9-----7--------7-----9--7h9--7--7h9---------------------------------------------
D|--------7--------------7--9-------------------------------------------------------------------
A|----------------------------------------------------------------------------------------------
E|----------------------------------------------------------------------------------------------

Stave 15:

E|------------------------------------------2--------12--12--10--9-----------------------------
B|--10--8--10--8p7--8--10--8--7\3--------3-----5--------------------10------12--10p8--10--8p7--
G|---------------------------------2--4---------------------------------11---------------------
D|---------------------------------------------------------------------------------------------
A|---------------------------------------------------------------------------------------------
E|---------------------------------------------------------------------------------------------

Stave 16:

E|---------------------------5--5----------------------------------7--9p7------------------------
B|--8--10--8--7--------------5--5----------------10--10--7--7--10----------10--7--7--------------
G|---------------7--------9--7--6--2/11--11--11-----------------------------------------7--9--7--
D|------------------7--9-----7--7----------------------------------------------------7-----------
A|-----------------------------------------------------------------------------------------------
E|-----------------------------------------------------------------------------------------------

Stave 17:

E|----------------------------------------------------------------------------0--0-----3--------
B|---------------------------------------------5--5--3--5--7--------------10-----------3--------
G|-----7--9--7--4h6--7--6--4--6--7--6--6p4--6--4--4-----------7--------7--9------------4--------
D|--7------------------------------------------------------------7--9---------------------------
A|----------------------------------------------------------------------------------------------
E|----------------------------------------------------------------------------------------------

Stave 18:

E|--------------2--
B|--------------3--
G|--5--4--2--0--2--
D|--------------0--
A|-----------------
E|-----------------

Stave 19:

E|--
B|--
G|--
D|--
A|--
E|--

http://www.guitartabcreator.com
Guitar Tab Creator is intended to store guitar tab created through the tool. It currently does not support in-line text editing. Any text you place in here will be lost. If you need to comment on your tab, please use the "Tab Notes" section located below.