Sound will begin in 5 seconds

Holiday

01234567891011121314151617181920212223
E
B
G
D
A
E
B
0 1 2 3 4 5 6 7 8 9 10 11 12 13 14 15 16 17 18 19 20 21 22 23
Song Science #1: How Pros Use 6 Chords to Write Hit Songs
(/) Slide Up  (\) Slide Down  (h) Hammer On  (p) Pull Off  (b) Bend (r) Release (v) Vibrato

Stave 1:

E|--13--13----15--15------16--16------15--15--
B|--14--14----14--14------14--14------16--16--
G|--15--15----13--13------13--13------15--15--
D|--_----------------------------------------
A|--_----------------------------------------
E|--_----------------------------------------

Stave 2:

E|------15------------------------
B|--18------18--16------16h18p16--
G|------------------17------------
D|--------------------------------
A|--------------------------------
E|--------------------------------

Stave 3:

E|--3--3--5--3--
B|--6--3--5--3--
G|--5--3--5--3--
D|--3--3--7--5--
A|--3--5--------
E|--3--3--------

Stave 4:

E|--15------------------------------------------------------15--15--
B|------18--16------16--18------19--18--16------16--18--------------
G|--------------17--------------------------17----------------------
D|------------------------------------------------------------------
A|------------------------------------------------------------------
E|------------------------------------------------------------------

http://www.guitartabcreator.com
Guitar Tab Creator is intended to store guitar tab created through the tool. It currently does not support in-line text editing. Any text you place in here will be lost. If you need to comment on your tab, please use the "Tab Notes" section located below.