Sound will begin in 5 seconds

DADEAE

01234567891011121314151617181920212223
E
B
G
D
A
E
B
0 1 2 3 4 5 6 7 8 9 10 11 12 13 14 15 16 17 18 19 20 21 22 23
Song Science #1: How Pros Use 6 Chords to Write Hit Songs
(/) Slide Up  (\) Slide Down  (h) Hammer On  (p) Pull Off  (b) Bend (r) Release (v) Vibrato

Stave 1:

E|--------------------------
B|--------------------------
G|--6--7--9------6--7--6--2--
D|--------------------------
A|--------------------------
E|--4--5--7------4--5--4--2--

Stave 2:

E|------------------14--------------------------
B|----12h13-----------------12h13---------------
G|-----------12h14-----------------12--14--14v--
D|----------------------------------------------
A|----------------------------------------------
E|----------------------------------------------

Stave 3:

E|-----10------9--10--|-----10------9--10--|------10------9--10--
B|-----0-------0--0---|-----0-------0--0---|------0-------0--0---
G|-----10------9--10--|-----10------9--10--|------10------9--10--
D|-----0-------0--0---|-----0-------0--0---|------0-------0--0---
A|--------------------|--------------------|---------------------
E|--0-----------------|--9-----------------|--10-----------------

http://www.guitartabcreator.com
Guitar Tab Creator is intended to store guitar tab created through the tool. It currently does not support in-line text editing. Any text you place in here will be lost. If you need to comment on your tab, please use the "Tab Notes" section located below.