Devil in a new Dress Guitar

Chords

01234567891011121314151617181920212223
E
B
G
D
A
E
B
0 1 2 3 4 5 6 7 8 9 10 11 12 13 14 15 16 17 18 19 20 21 22 23
(/) Slide Up  (\) Slide Down  (h) Hammer On  (p) Pull Off  (b) Bend (r) Release (v) Vibrato

Stave 1:

E|----------------------------------------------------------------------------------------------------------------------------------------------------
B|----------------------------------------------------------------------------------------------------------------------------------------------------
G|------------------------------------------8--8-----8--10--11--8------------------------------------------8------------------------------------------
D|-----11--9---------11--9------------8--8--------8-------------------11--9---------11--9------------8--8---------------------------6--8--6--8--8--6--
A|--7---------11--7---------11--7--6-------------------------------7---------11--7---------11--7--6---------------------------------------------------
E|------------------------------------------------------------------------------------------------------------4--4--6--6--6--7--12--------------------

Stave 2:

E|------------------------------------------------------------------------------------------------------------------------------------------------------
B|------------------------------------------------------------------------------------------------------------------------------------------------------
G|--6--8--6--8--8--6--4--4--4-----------4-----------11--13--11------------------------------6--8--6--8--8--6--4--4--4-----4--6--4-----------------------
D|-----------------------------6--4--6-----4--6--4--------------13--11-------------------------------------------------6-----------4--6--4--1--4--1-----
A|----------------------------------------------------------------------13--11------11---------------------------------------------------------------4--
E|------------------------------------------------------------------------------14------14--------------------------------------------------------------

Stave 3:

E|--------------------------------------------------------------------------------------------------------21b23--16--14--16-------------------------
B|--14b16b14--12------16--14--16--16--14--12--12--12--9--14--12--7--9--7--12--11--9--7---------------------------------------14--14--12--12--12--9--
G|----------------13--------------------------------------------------------------------8--11--8----------------------------------------------------
D|------------------------------------------------------------------------------------------------11--13--------------------------------------------
A|--------------------------------------------------------------------------------------------------------------------------------------------------
E|--------------------------------------------------------------------------------------------------------------------------------------------------

Stave 4:

E|------------------------------------------------------------------------------------14------14--16/18--16--
B|--12/14--12--7--9--7--16p14\12h14p12\11p12p11---------14---------------------14/16------16-----------------
G|-----------------------------------------------13/15------13\11------11------------------------------------
D|-----------------------------------------------------------------13------13--------------------------------
A|-----------------------------------------------------------------------------------------------------------
E|-----------------------------------------------------------------------------------------------------------

							http://www.guitartabcreator.com
Instruments
{"strings":[[[".",".",".",".",".",".",".",".",".",".",".",".",".",".",".",".",".",".",".",".",".",".",".",".",".",".",".",".",".",".",".",".",".",".",".",".",".",".",".",".",".",".",".",".","."],[".",".",".",".",".",".",".",".",".",".",".",".",".",".",".",".",".",".",".",".",".",".",".",".",".",".",".",".",".",".",".",".",".",".",".",".",".",".",".",".",".",".",".",".","."],[".",".",".",".",".",".",".",".",".",".",".",".",8,8,".",8,10,11,8,".",".",".",".",".",".",".",".",".",".",".",".",8,".",".",".",".",".",".",".",".",".",".",".",".","."],[".",11,9,".",".",11,9,".",".",".",8,8,".",".",8,".",".",".",".",".",11,9,".",".",11,9,".",".",".",8,8,".",".",".",".",".",".",".",".",6,8,6,8,8,6],[7,".",".",11,7,".",".",11,7,6,".",".",".",".",".",".",".",".",".",7,".",".",11,7,".",".",11,7,6,".",".",".",".",".",".",".",".",".",".",".",".",".",".",".","."],[".",".",".",".",".",".",".",".",".",".",".",".",".",".",".",".",".",".",".",".",".",".",".",".",".",".",".",".",".",".",".",".",4,4,6,6,6,7,12,".",".",".",".",".","."]],[[".",".",".",".",".",".",".",".",".",".",".",".",".",".",".",".",".",".",".",".",".",".",".",".",".",".",".",".",".",".",".",".",".",".",".",".",".",".",".",".",".",".",".",".",".","."],[".",".",".",".",".",".",".",".",".",".",".",".",".",".",".",".",".",".",".",".",".",".",".",".",".",".",".",".",".",".",".",".",".",".",".",".",".",".",".",".",".",".",".",".",".","."],[6,8,6,8,8,6,4,4,4,".",".",".",4,".",".",".",11,13,11,".",".",".",".",".",".",".",6,8,6,8,8,6,4,4,4,".",4,6,4,".",".",".",".",".",".","."],[".",".",".",".",".",".",".",".",".",6,4,6,".",4,6,4,".",".",".",13,11,".",".",".",".",".",".",".",".",".",".",".",".",".",".",6,".",".",".",4,6,4,1,4,1,"."],[".",".",".",".",".",".",".",".",".",".",".",".",".",".",".",".",".",".",".",".",".",13,11,".",11,".",".",".",".",".",".",".",".",".",".",".",".",".",".",".",".",".",".",".",".",4],[".",".",".",".",".",".",".",".",".",".",".",".",".",".",".",".",".",".",".",".",".",".",".",14,".",14,".",".",".",".",".",".",".",".",".",".",".",".",".",".",".",".",".",".",".","."]],[[".",".",".",".",".",".",".",".",".",".",".",".",".",".",".",".",".",".",".",".",".",".",".",".",".",".",".",".",".",".",21,"b",23,16,14,16,".",".",".",".",".","."],[14,"b",16,"b",14,12,".",16,14,16,16,14,12,12,12,9,14,12,7,9,7,12,11,9,7,".",".",".",".",".",".",".",".",".",".",".",14,14,12,12,12,9],[".",".",".",".",".",".",13,".",".",".",".",".",".",".",".",".",".",".",".",".",".",".",".",".",".",8,11,8,".",".",".",".",".",".",".",".",".",".",".",".",".","."],[".",".",".",".",".",".",".",".",".",".",".",".",".",".",".",".",".",".",".",".",".",".",".",".",".",".",".",".",11,13,".",".",".",".",".",".",".",".",".",".",".","."],[".",".",".",".",".",".",".",".",".",".",".",".",".",".",".",".",".",".",".",".",".",".",".",".",".",".",".",".",".",".",".",".",".",".",".",".",".",".",".",".",".","."],[".",".",".",".",".",".",".",".",".",".",".",".",".",".",".",".",".",".",".",".",".",".",".",".",".",".",".",".",".",".",".",".",".",".",".",".",".",".",".",".",".","."]],[[".",".",".",".",".",".",".",".",".",".",".",".",".",".",".",".",".",".",".",".",".",".",".",".",".",".",".",".",".",".",".",".",".",".",".",14,".",14,16,"/",18,16],[12,"/",14,12,7,9,7,16,"p",14,"\\",12,"h",14,"p",12,"\\",11,"p",12,"p",11,".",".",".",14,".",".",".",".",".",".",14,"/",16,".",16,".",".",".",".","."],[".",".",".",".",".",".",".",".",".",".",".",".",".",".",".",".",".",".",".",".",".",".",13,"/",15,".",13,"\\",11,".",11,".",".",".",".",".",".",".",".",".",".","."],[".",".",".",".",".",".",".",".",".",".",".",".",".",".",".",".",".",".",".",".",".",".",".",".",".",".",".",".",".",13,".",13,".",".",".",".",".",".",".",".",".","."],[".",".",".",".",".",".",".",".",".",".",".",".",".",".",".",".",".",".",".",".",".",".",".",".",".",".",".",".",".",".",".",".",".",".",".",".",".",".",".",".",".","."],[".",".",".",".",".",".",".",".",".",".",".",".",".",".",".",".",".",".",".",".",".",".",".",".",".",".",".",".",".",".",".",".",".",".",".",".",".",".",".",".",".","."]]],"numberofstrings":6,"notes":["E","B","G","D","A","E","B"],"capo":0,"stringnotes":["E4","B3","G3","D3","A2","E2"],"comments":["Stave 1:","Stave 2:","Stave 3:","Stave 4:"],"timing":[[null,null,null,null,null,null,null,null,null,null,null,null,null,null,null,null,null,null,null,null,null,null,null,null,null,null,null,null,null,null,null,null,null,null,null,null,null,null,null,null,null,null,null,null,null,"W"],["W","W","W","W","W","W","W","W","W","W","W","W","W","W","W","W","W","W","W","W","W","W","W","W","W","W","W","W","W","W","W","W","W","W","W","W","W","W","W","W","W","W","W","W","W","W"],["W","W","W",null,"W","W","W","W","W","W","W","W","W","W","W","W","W","W","W","W","W","W","W","W","W","W","W","W","W","W","W",null,"W","W","W","W","W","W","W","W","W","W","W",null,"W"],["W",null,"W","W","W","W","W","W",null,"W",null,"W",null,"W",null,"W",null,"W",null,"W",null,"W","W",null,"W","W","W",null,"W","W","W","W","W",null,"W","W","W","W","W",null,"W","W"]],"timingvisible":false,"tabcounter":42,"stave":3,"totalstaves":4,"instrument":"6guitar","selectedtuning":"6_standard","version":"13"}

Member for

1 month
Submitted by feruiz on Fri, 2020-10-30 10:34