Sound will begin in 5 seconds

knockin on heavens door

Chords
01234567891011121314151617181920212223
E
B
G
D
A
E
B
0 1 2 3 4 5 6 7 8 9 10 11 12 13 14 15 16 17 18 19 20 21 22 23
(/) Slide Up  (\) Slide Down  (h) Hammer On  (p) Pull Off  (b) Bend (r) Release (v) Vibrato

G D

E|-3-3---------------2-0---------------------0---------------
B|-3---3-----3-----3-----3---3---------1---------1-----------
G|-0-------0-----2---------2---0-----0---0-----0---0-0-----0-
D|-0-----------0---------------0h2---------2-2-------0h2-----
A|-2-------------------------------3---------------------3---
E|-3---------------------------------------------------------

Stave 2:

E|---3-------------2-0-----------------------------------
B|-----3---3-----3-----3---0-----1-------1---1-----1-----
G|-------0-----2---------2-----0---0-------0---0-----0---
D|-0---------0-----------------------2-----------2-----2-
A|-2-------------------------3---------3-----------------
E|-3-----------------------------------------------------

G5 D5 C5

E|-
B|-
G|-
D|-
A|-
E|-

G D Am

E|-3-3-------------3-0-------------------0---------------
B|-3---3---3-----3-----3---0-----0h1---------1-----------
G|-0-----0-----2---------2-----2-----2-----2---2---0---0-
D|-0---------0-------------------------2---------2---2---
A|-2-------------------------0---------------------------
E|-3-----------------------------------------------------

C G5 D5 C5

E|-------------------------
B|-----1---------1---------
G|---0---0-----0---0-------
D|---------2---------2---0-
A|-2---------3---------3---
E|-------------------------

Stave 6:

E|---------------------------------------------------------------------------------------------------
B|---------------------15----------------------------15/17-15---13p12-13b15---13p12-13p12------12-13-
G|-12-14b16r14p12---14----14b16r14p12---12v-------12----------------------------------------14-------
D|------------------------------------------12/14----------------------------------------------------
A|---------------------------------------------------------------------------------------------------
E|---------------------------------------------------------------------------------------------------

Stave 7:

E|-15-------------15-17b19-17---17b19---17b19-15v---20b22-20p19-20-19-20b22-20p19-20-20----
B|----13-12-15/17-----------------------------------------------------------------------17-
G|-----------------------------------------------------------------------------------------
D|-----------------------------------------------------------------------------------------
A|-----------------------------------------------------------------------------------------
E|-----------------------------------------------------------------------------------------

Stave 8:

E|-------------------------------------15---
B|-15b17r15-15b17r15------------------------
G|-------------------14b16r14b16r14p12------
D|------------------------------------------
A|------------------------------------------
E|------------------------------------------

http://www.guitartabcreator.com
Guitar Tab Creator is intended to store guitar tab created through the tool. It currently does not support in-line text editing. Any text you place in here will be lost. If you need to comment on your tab, please use the "Tab Notes" section located below.