Sound will begin in 5 seconds

5

Chords
01234567891011121314151617181920212223
E
B
G
D
A
E
B
0 1 2 3 4 5 6 7 8 9 10 11 12 13 14 15 16 17 18 19 20 21 22 23
Song Science #1: How Pros Use 6 Chords to Write Hit Songs
(/) Slide Up  (\) Slide Down  (h) Hammer On  (p) Pull Off  (b) Bend (r) Release (v) Vibrato

Stave 1:

E|--------------------------------------------------------------------------------
B|--2--------------2-----0--------------0-----0--------------0--------2-----2--2--
G|--2-----------2--------2-----------1--------1-----------1-----------0-----3--2--
D|--0--------0-----------2--------0-----------2--------2--------------2-----2--2--
A|--0-----0--------------2-----2--------------0-----0-----------------0-----0--0--
E|--------------------------------------------------------------------------------

Stave 2:

E|--0--------0--------0-----------2--------2--------2--------------------------------------------------------------------
B|--2-----------2--------2--------0-----------0--------0--------2--------2--------2-----------2--------2--------2--------
G|--2--------------2--------2-----1--------------1--------1-----1-----------1--------1--------2-----------2--------2-----
D|--0-----------------------------0-----------------------------2--------------2--------2-----2--------------2--------2--
A|--------------------------------------------------------------0-----------------------------0--------------------------
E|-----------------------------------------------------------------------------------------------------------------------

Stave 3:

E|--5--------------------------7--------------------------5-----5-----5-----------------
B|--5--------7--5-----5--7-----9--------9--7-----7--9-----5-----5-----5-----------------
G|--6--------------6-----------9--------------9-----------6-----7-----6-----9--9--7--6--
D|--7--------------------------7--------------------------7-----7-----7-----------------
A|--5--------------------------7--------------------------7-----7-----7-----------------
E|--5--------------------------7--------------------------5-----5-----5-----------------

Stave 4:

E|--5-----------------7-----------------5-----3-----2-----------------
B|--5-----------------9-----------------5-----3-----2-----5--5--3--2--
G|--6-----------------9-----------------6-----4-----3-----------------
D|--7-----------------7-----------------7-----5-----4-----------------
A|--5-----------------7-----------------7-----5-----4-----------------
E|--5-----------------7-----------------5-----3-----2-----------------

Stave 5:

E|--5-----------------7-----------------------------------------------------------------------------------
B|--5-----------------9-----------------5-----5-----------3-----3-----------2-----2-----------------------
G|--6-----------------9-----------------6--------6--------4--------4--------3--------3--------3--3--4--6--
D|--7-----------------7-----------------6-----------6-----4-----------4-----3-----------3-----------------
A|--5-----------------7-----------------------------------------------------------------------------------
E|--5-----------------7-----------------5-----------------3-----------------2-----------------------------

Stave 6:

E|--5-----------------0-----------------------0-----------------0--
B|--5-----------------0-----------------0-----0-----------------2--
G|--6-----------------1--------------1--------1-----------------1--
D|--7-----------------2-----------2-----------2-----------------2--
A|--5-----------------2--------2--------------0-----------------0--
E|--5-----------------0-----------------------0-----------------0--

http://www.guitartabcreator.com
Guitar Tab Creator is intended to store guitar tab created through the tool. It currently does not support in-line text editing. Any text you place in here will be lost. If you need to comment on your tab, please use the "Tab Notes" section located below.