Van Halen "Panama" 2

Chords

01234567891011121314151617181920212223
E
B
G
D
A
E
B
0 1 2 3 4 5 6 7 8 9 10 11 12 13 14 15 16 17 18 19 20 21 22 23
(/) Slide Up  (\) Slide Down  (h) Hammer On  (p) Pull Off  (b) Bend (r) Release (v) Vibrato

Stave 1:

E|------------------------------------------7--
B|--9-----------------------------------10--7--
G|--9-----------------------------------9---8--
D|--9-----------------------------------9---9--
A|--------7--7--------------------7---------7--
E|---------------------------------------------

Stave 2:

E|--------------------------5---------4--4--4----------------------------------------------
B|--7--------------8--------5-----/---5--5--5--------4h5--4--4-----2--2--2-----------------
G|--7--------------7--------6---------6--6--6--------4-4--4--4-----2--2--2-----------------
D|--7--------------7--------7---------6--6--6--------4-4--4--4-----2--2--2-----------------
A|--------5--5--------5--5--5---------4--4--4--------4-4--4--4-----0--0--0-----2-----------
E|--------------------------------------------------------------------------------5--------

Stave 3:

E|-----4--4--4--------------0----------------------------------------------------------0--------0--------5--------5-----------------------------
B|-----5--5--5-----4-----4-----4h5-----4--4-----2--2--2--------------------2--2--2--4-----4--------4--------4--5-----5--5--5--5--5--------------
G|-----6--6--6--------6--------4-4-----4--4-----2--2--2--------------------2--2--2--4--------4--------4-----------------------------------------
D|-----6--6--6-----------------4-4-----4--4-----2--2--2--------------------2--2--2--4-----------------------------------------------------------
A|-----4--4--4-----------------4-4-----4--4-----0--0--0-----2--------------0--0--0--2-----------------------------------------------------------
E|----------------------------------------------------------------5-----------------------------------------------------------------------------

Stave 4:

E|---------------------------------------------------------------------------------------
B|--------2--3-----2--3--2-------------------2--3-----2--3--2----------------------------
G|--1--1--2--2-----2--2--2-------------1--1--2--2-----2--2--2----------------4--x--------
D|--2--2--2--2-----2--2--2-----5\7-----2--2--2--2-----2--2--2-----5\7--------------------
A|--2--2--0--------0-----0-----5-7-----2--2--0--------0-----0-----5-7--------------------
E|---------------------------------------------------------------------------------------

Stave 5:

E|-----------------0--------------------0--------------0--0--------------------------0-----0--------------
B|-----------------0--1--2--------------0--1--2--------0-----0--0--------0-----------0--------0-----------
G|-----1--------------1--1--------1--------1--1--------3-----------3--------3--------6-----------6--------
D|--0--2-----------------------0--2--------------------4--------------4--------4-----6--------------------
A|--0--2-----------------------0--2--------------------4-----------------------------4--------------------
E|--------------------------------------------------------------------------------------------------------

Stave 6:

E|---------------------------------------0--0--------0--------5--------5----------------------------------------------------------------------------
B|---------------------------------------0-----4--------4--------4--5-----5--5--5--5--5--------------2--3-----2--3--2-------------------------------
G|------------------------------------------------4--------4-----------------------------------1--1--2--2-----2--2--2----------1--------------4--x--
D|---------------------------------------------------------------------------------------------2--2--2--2-----2--2--2-----5-7--2--------------------
A|------5--------3--------------2--------------------------------------------------------------2--2--0--------0-----0-----5-7--2--------------------
E|--/------6--5-----4--3--2--0----------------------------------------------------------------------------------------------------------------------

							
Instruments
{"strings":[[[".","_",".",".","_","_","_","_","_","_",".","_",".",7],[9,"_",".",".","_","_","_","_","_","_",".","_",10,7],[9,"_",".",".","_","_","_","_","_","_",".","_",9,8],[9,"_",".",".","_","_","_","_","_","_",".","_",9,9],[".","_",7,7,"_","_","_","_","_","_",7,"_",".",7],[".","_",".",".","_","_","_","_","_","_",".","_",".","."]],[[".","_",".",".","_",".",".",".",5,"_",".",".",4,4,4,"_",".",".",".",".","_","_",".",".",".",".","_",".",".",".","."],[7,"_",".",".","_",8,".",".",5,"_","/",".",5,5,5,"_",".",4,"h",5,4,4,".",2,2,2,"_",".",".",".","."],[7,"_",".",".","_",7,".",".",6,"_",".",".",6,6,6,"_",".",4,".",4,4,4,".",2,2,2,"_",".",".",".","."],[7,"_",".",".","_",7,".",".",7,"_",".",".",6,6,6,"_",".",4,".",4,4,4,".",2,2,2,"_",".",".",".","."],[".","_",5,5,"_",".",5,5,5,"_",".",".",4,4,4,"_",".",4,".",4,4,4,".",0,0,0,"_",2,".",".","."],[".","_",".",".","_",".",".",".",".","_",".",".",".",".",".","_",".",".",".",".","_","_",".",".",".",".","_",".",5,".","."]],[[".",4,4,4,"_",".",".",".",0,".",".",".",".","_","_",".",".",".",".","_",".",".",".",".",".",".",".",".",".",0,".",".",0,".",".",5,".",".",5,".",".",".",".",".","_","_","_","_"],[".",5,5,5,"_",4,".",4,".",4,"h",5,".",4,4,".",2,2,2,"_",".",".",".",".",".",2,2,2,4,".",4,".",".",4,".",".",4,5,".",5,5,5,5,5,"_","_","_","_"],[".",6,6,6,"_",".",6,".",".",4,".",4,".",4,4,".",2,2,2,"_",".",".",".",".",".",2,2,2,4,".",".",4,".",".",4,".",".",".",".",".",".",".",".",".","_","_","_","_"],[".",6,6,6,"_",".",".",".",".",4,".",4,".",4,4,".",2,2,2,"_",".",".",".",".",".",2,2,2,4,".",".",".",".",".",".",".",".",".",".",".",".",".",".",".","_","_","_","_"],[".",4,4,4,"_",".",".",".",".",4,".",4,".",4,4,".",0,0,0,"_",2,".",".",".",".",0,0,0,2,".",".",".",".",".",".",".",".",".",".",".",".",".",".",".","_","_","_","_"],[".",".",".",".","_",".",".",".",".",".",".",".",".","_","_",".",".",".",".","_",".",".",5,".",".",".",".",".",".",".",".",".",".",".",".",".",".",".",".",".",".",".",".",".","_","_","_","_"]],[[".",".",".",".","_",".",".",".","_",".",".",".","_",".",".",".",".","_",".",".",".","_",".",".",".",".",".",".",".",".","."],[".",".",2,3,"_",2,3,2,"_",".",".",".","_",".",".",2,3,"_",2,3,2,"_",".",".",".",".",".",".",".",".","."],[1,1,2,2,"_",2,2,2,"_",".",".",".","_",1,1,2,2,"_",2,2,2,"_",".",".",".",".",".",4,"x",".","."],[2,2,2,2,"_",2,2,2,"_",5,"\\",7,"_",2,2,2,2,"_",2,2,2,"_",5,"\\",7,".",".",".",".",".","."],[2,2,0,".","_",0,".",0,"_",5,".",7,"_",2,2,0,".","_",0,".",0,"_",5,".",7,".",".",".",".",".","."],[".",".",".",".","_",".",".",".","_",".",".",".","_",".",".",".",".","_",".",".",".","_",".",".",".",".",".",".",".",".","."]],[[".",".","_","_",".",0,".",".","_",".",".",".",0,".",".",".","_",0,0,".",".",".",".",".",".",".",".",0,".",0,"_","_","_","_"],[".",".","_","_",".",0,1,2,"_",".",".",".",0,1,2,".","_",0,".",0,0,".",".",0,".",".",".",0,".","_",0,"_","_","_"],[".",1,"_","_",".",".",1,1,"_",".",1,".",".",1,1,".","_",3,".",".",".",3,".",".",3,".",".",6,".","_","_",6,"_","_"],[0,2,"_","_",".",".",".",".","_",0,2,".",".",".",".",".","_",4,".",".",".",".",4,".",".",4,".",6,".","_","_","_","_","_"],[0,2,"_","_",".",".",".",".","_",0,2,".",".",".",".",".","_",4,".",".",".",".",".",".",".",".",".",4,".","_","_","_","_","_"],[".",".","_","_",".",".",".",".","_",".",".",".",".",".",".",".","_",".",".",".",".",".",".",".",".",".",".",".",".","_","_","_","_","_"]],[[".",".",".",".",".",".",".",".",".",".",".",".",".",0,0,".",".",0,".",".",5,".",".",5,".",".",".",".",".","_","_","_",".",".",".",".",".",".",".",".",".","_",".",".",".",".",".",".",".","."],[".",".",".",".",".",".",".",".",".",".",".",".",".",0,".",4,".",".",4,".",".",4,5,".",5,5,5,5,5,"_","_","_",".",2,3,".",2,3,2,".",".","_",".",".",".",".",".",".",".","."],[".",".",".",".",".",".",".",".",".",".",".",".",".",".",".",".",4,".",".",4,".",".",".",".",".",".",".",".",".","_","_",1,1,2,2,".",2,2,2,".",".","_",".",1,".",".",".",".",4,"x"],[".",".",".",".",".",".",".",".",".",".",".",".",".",".",".",".",".",".",".",".",".",".",".",".",".",".",".",".",".","_","_",2,2,2,2,".",2,2,2,".",5,"\\",7,2,".",".",".",".",".","."],[".",".",5,".",".",3,".",".",".",".",2,".",".",".",".",".",".",".",".",".",".",".",".",".",".",".",".",".",".","_","_",2,2,0,".",".",0,".",0,".",5,"\\",7,2,".",".",".",".",".","."],["/",".",".",6,5,".",4,3,2,0,".",".",".",".",".",".",".",".",".",".",".",".",".",".",".",".",".",".",".","_","_","_",".",".",".",".",".",".",".",".",".","_",".",".",".",".",".",".",".","."]]],"numberofstrings":6,"notes":["E","B","G","D","A","E","B"],"capo":0,"stringnotes":["E4","B3","G3","D3","A2","E2"],"comments":["Stave 1:","Stave 2:","Stave 3:","Stave 4:","Stave 5:","Stave 6:"],"timing":[[null,null,null,null,null,null,null,"W",null,"W","W",null,"W","W","W","W","W","W"],["W",null,"W","W","W","W","W","W","W"],["W","W","W","W","W","W","W","W","W","W","W","W","W","W","W",null,null,"W","W","W","W","W","W","W","W","W","W","W","W","W","W","W","W","W","W","W","W","W"],["W","W","W","W","W","W","W","W","W","W",null,"W",null,"W","W","W","W",null,"W","W","W",null,"W",null,"W",null,null,null,"W","W"],["W","W",null,null,null,"W","W","W",null,"W","W","W","W",null,null,"W",null,null,"W","W",null,null,null,null,null,null,null,null,null,null,null,"W",null,"W","W","W"],[null,null,null,null,null,null,null,null,null,null,null,null,null,"W","W","W",null,null,null,"W",null,null,null,null,null,null,null,null,null,null,null,null,null,null,null,null,null,null,null,null,null,null,null,"W","W",null,null,null,null,null,"W"]],"timingvisible":false,"tabcounter":36,"stave":2,"totalstaves":6,"instrument":"6guitar","selectedtuning":"6_standard","version":"13"}

Member for

4 months
Submitted by Felix B. Ayodele on Tue, 2020-10-06 14:39