Sound will begin in 5 seconds

Avivanos - Generacion 12

01234567891011121314151617181920212223
E
B
G
D
A
E
B
0 1 2 3 4 5 6 7 8 9 10 11 12 13 14 15 16 17 18 19 20 21 22 23
Song Science #1: How Pros Use 6 Chords to Write Hit Songs
(/) Slide Up  (\) Slide Down  (h) Hammer On  (p) Pull Off  (b) Bend (r) Release (v) Vibrato

Stave 1:

E|--------------------------------------------------11--12--11------
B|--12------12------12------12------12------12------------------12--
G|------11------11------11------11------11------11------------------
D|------------------------------------------------------------------
A|------------------------------------------------------------------
E|------------------------------------------------------------------

Stave 2:

E|--------------------------------------
B|--------9--------5--------7--------7--
G|-----8--------4--------4--------6-----
D|--6--------2--------4--------4--------
A|--------------------------------------
E|--------------------------------------

Stave 3:

E|-------------------------------------------------------------------------------------------------------------------------------------------------
B|-------------------------------------------------------------------------------------------------------------------------------------------------
G|---8--8--8--8--8--8--8--8--8--8--8--8--8--8--8\4--4--4--4--4--4--4--4--4--4--4--3--3--3/8--8--8--8--8--8--8--8--8--8--8/11--11--11--11--6--6--6--
D|-------------------------------------------------------------------------------------------------------------------------------------------------
A|-------------------------------------------------------------------------------------------------------------------------------------------------
E|--/----------------------------------------------------------------------------------------------------------------------------------------------

Stave 4:

E|---------------------
B|---------------------
G|--8--4--3--8--11--6--
D|---------------------
A|---------------------
E|---------------------

Stave 5:

E|-----------------------------------------------------------------------------------------------------------------------------------------------------------
B|-----------------------------------------------------------------------------------------------------------------------------------------------------------
G|--8--8--8--8--8--8--8--8--8--8--8--8--8--8--8--8--8--8--4--4--4--4--4--4--4--4--4--4--4--4--4--4--4--4--3--3--3--3--3--8--8--8--8--8--8--8--8--8--8--8--8--
D|-----------------------------------------------------------------------------------------------------------------------------------------------------------
A|-----------------------------------------------------------------------------------------------------------------------------------------------------------
E|-----------------------------------------------------------------------------------------------------------------------------------------------------------

Stave 6:

E|-----------------------------
B|--------7--------9--------5--
G|-----6--------8--------4-----
D|--4--------6--------2--------
A|-----------------------------
E|-----------------------------

Stave 7:

E|-----------------------
B|---------12--------12--
G|-----11---------9------
D|--9----------9---------
A|-----------------------
E|-----------------------

Stave 8:

E|--------------------
B|--------9--------7--
G|-----8--------6-----
D|--6--------4--------
A|--------------------
E|--------------------

Stave 9:

E|-----
B|-----
G|--4--
D|-----
A|-----
E|-----

Stave 10:

E|-----11-----7-----6-----11------14-----9--
B|------------------------------------------
G|--8------4-----3-----8------11------6-----
D|------------------------------------------
A|------------------------------------------
E|------------------------------------------

Stave 11:

E|--14--12--11--12--12--11--11--9--9--11--14--16--12--11--14--
B|------------------------------------------------------------
G|------------------------------------------------------------
D|------------------------------------------------------------
A|------------------------------------------------------------
E|------------------------------------------------------------

http://www.guitartabcreator.com
Guitar Tab Creator is intended to store guitar tab created through the tool. It currently does not support in-line text editing. Any text you place in here will be lost. If you need to comment on your tab, please use the "Tab Notes" section located below.