Sound will begin in 5 seconds

almost midnight lead

01234567891011121314151617181920212223
E
B
G
D
A
E
B
0 1 2 3 4 5 6 7 8 9 10 11 12 13 14 15 16 17 18 19 20 21 22 23
Song Science #1: How Pros Use 6 Chords to Write Hit Songs
(/) Slide Up  (\) Slide Down  (h) Hammer On  (p) Pull Off  (b) Bend (r) Release (v) Vibrato

Stave 1:

E|---------------------------------------------------------------------------------------------
B|--13-----13p12------13--12-------------------------13v--13p12--15--12--13--13--12h13p12--10--
G|----------------12---------------------------------------------------------------------------
D|----------------------------12--10/12--14--12--10--------------------------------------------
A|---------------------------------------------------------------------------------------------
E|---------------------------------------------------------------------------------------------

Stave 2:

E|-----------------------------15---------------------------------------------------------
B|--17-----15-----17---------------------------12--13--15--13--12------------------17p15--
G|-----------------------------------------------------------------12---------------------
D|----------------------------------------------------------------------------------------
A|----------------------------------------------------------------------------------------
E|----------------------------------------------------------------------------------------

Stave 3:

E|----------------------------------------------------------------------
B|------12--13--12--10--13-----13--12-----------------------------------
G|--12---------------------------------12-----------10--9--7--9-----12--
D|----------------------------------------------------------------------
A|----------------------------------------------------------------------
E|----------------------------------------------------------------------

Stave 4:

E|------------------13--15-----------15-----------------13--------12--------13--12------
B|--13--15--13--17------------------------------------------------------------------15--
G|--------------------------------------------------------------------------------------
D|--------------------------------------------------------------------------------------
A|--------------------------------------------------------------------------------------
E|--------------------------------------------------------------------------------------

Stave 5:

E|--12------------------------------------------------15--12--
B|------15--13--15--13------------------------12--13----------
G|----------------------12--------12--12--14------------------
D|------------------------------------------------------------
A|------------------------------------------------------------
E|------------------------------------------------------------

http://www.guitartabcreator.com
Guitar Tab Creator is intended to store guitar tab created through the tool. It currently does not support in-line text editing. Any text you place in here will be lost. If you need to comment on your tab, please use the "Tab Notes" section located below.