Sound will begin in 5 seconds

ThePuritan

Chords
01234567891011121314151617181920212223
E
B
G
D
A
E
B
0 1 2 3 4 5 6 7 8 9 10 11 12 13 14 15 16 17 18 19 20 21 22 23
Song Science #1: How Pros Use 6 Chords to Write Hit Songs
(/) Slide Up  (\) Slide Down  (h) Hammer On  (p) Pull Off  (b) Bend (r) Release (v) Vibrato

Stave 1:

E|--------------------------------
B|--------------------------------
G|----------6--6--6--10-----------
D|--4--4--4--6--6--6--10--8--7--0--
A|--4--4--4--4--4--4--8---8--7--0--
E|--4--4--4---------------8--7--0--

Stave 2:

E|--------------------------------------------------------------
B|--------------------------------------------------------------
G|--------------------------------------------------------------
D|-----------------3-----------3-----------------3-----------1--
A|-----------0--1-----1--0--1--3-----------0--1-----1--0--1--1--
E|--0--0--3--------------------3--0--0--3--------------------1--

Stave 3:

E|-------------------------------------------------------------
B|-------------------------------------------------------------
G|-------------------------4-----------------------------4-----
D|--1--2--1--2--1--2--1--2--4--2--1--2--1--2--1--2--0--0--4--5--
A|--1--2--1--2--1--2--1--2--2--2--1--2--1--2--1--2--0--0--2--5--
E|--1--2--1--2--1--2--1--2-----2--1--2--1--2--1--2--0--0-----5--

Stave 4:

E|-----------------------------
B|-----------------------------
G|-----------------------------
D|--7--7--7--7--10--10--10--10--
A|--3--3--3--3--7---7---7---7---
E|--3--3--3--3--7---7---7---7---

Stave 5:

E|-------------------------------------------
B|-------------------------------------------
G|-------------------------------------------
D|--0--0--------------------0--2--5--0--4--7--
A|--0--0--0--4--7--0--5--8--------------------
E|--0--0--------------------------------------

http://www.guitartabcreator.com
Guitar Tab Creator is intended to store guitar tab created through the tool. It currently does not support in-line text editing. Any text you place in here will be lost. If you need to comment on your tab, please use the "Tab Notes" section located below.