Sound will begin in 5 seconds

ofmoltenbodies

Chords
01234567891011121314151617181920212223
E
B
G
D
A
E
B
0 1 2 3 4 5 6 7 8 9 10 11 12 13 14 15 16 17 18 19 20 21 22 23
Song Science #1: How Pros Use 6 Chords to Write Hit Songs
(/) Slide Up  (\) Slide Down  (h) Hammer On  (p) Pull Off  (b) Bend (r) Release (v) Vibrato

Stave 1:

E|-----------------------------
B|-----------------------------
G|-----------------------------
D|-3-0-3-4-3-4-7-7-7-11-11-11-0-
A|-3-0-3-4-3-4-7-7-7-11-11-11-0-
E|-3-0-3-4-3-4-7-7-7-11-11-11-0-

Stave 2:

E|----------------------------------
B|----------------------------------
G|-6-----3---------------------6-----
D|-6-4-0-3-0-3-0-0-1-3-0-3-4-3-6-4-3----
A|-4-4-0-1-0-3-0-0-1-3-0-3-4-3-4-4-3----
E|--4-0---0-3-0-0-1-3-0-3-4-3---4-3-

Stave 3:

E|------------------------------
B|------------------------------
G|------------------------------
D|-0-0-----0-0-------------------_-
A|-0-0-----0-0-----4-4-4-0-0-0---_-
E|-0-0-0-0-0-0-0-0-------------3-_-

Stave 4:

E|--------------------
B|--------------------
G|--6-----6---5-----5----
D|-4-6-4-4-6-3-5-3-3-5-_-
A|-4--4-4---3---3-3---
E|-4--4-4---3---3-3---

Stave 5:

E|------------------------
B|------------------------
G|------------------------
D|------------------------
A|-4---------------4------
E|---4-4-3-4-6-4-3---3-3--

Stave 6:

E|------
B|------
G|------
D|-4-0-3-_-
A|-4-0-3-_-
E|-4-0-3-_-

http://www.guitartabcreator.com
Guitar Tab Creator is intended to store guitar tab created through the tool. It currently does not support in-line text editing. Any text you place in here will be lost. If you need to comment on your tab, please use the "Tab Notes" section located below.