Sound will begin in 5 seconds

Stranger

01234567891011121314151617181920212223
E
B
G
D
A
E
B
0 1 2 3 4 5 6 7 8 9 10 11 12 13 14 15 16 17 18 19 20 21 22 23
Song Science #1: How Pros Use 6 Chords to Write Hit Songs
(/) Slide Up  (\) Slide Down  (h) Hammer On  (p) Pull Off  (b) Bend (r) Release (v) Vibrato

Stave 1:

G|--------------------------------------------------------------------------------------------------
D|--------------------------------------------------5--5--5--5--5--5--7--7--8--8--8--8--8--7--7--8--
A|--3--3--3--3--3--3--5--5--6--6--6--6--6--5--5--6--------------------------------------------------
D|--------------------------------------------------------------------------------------------------

Stave 2:

G|--------------------------------------------------------------------------------------------------
D|--------------------------------------------------5--5--5--5--5--5--5--5--5--5--5--5--5--5--5--5--
A|--3--3--3--3--3--3--3--3--3--3--3--3--3--3--3--3--------------------------------------------------
D|--------------------------------------------------------------------------------------------------

Stave 3:

G|------------------------------------------------------------------
D|------------------------------------------------------------------
A|-----5--------6-----5--------3h5-----5--------6-----5--------1h3--
D|--0-----0--0-----0-----0--0-------0-----0--0-----0-----0--0-------

Stave 4:

G|--------------------------------------------------------------------------------
D|--------------------------------------------------------------------------------
A|--------------------------------------------------------------------------------
D|--0--------------1--1--1--1--3--3--3--3--0--------------1--1--1--1--3--3--3--3--

Stave 5:

G|---------------------------------------------------
D|---------------------------------------------------
A|--------------------------5--7--8--7--10--8--7--8--
D|--0--0--0--0--0--0--0--0---------------------------

Stave 6:

G|-----------------------------------------------------------
D|-----------------------------------------------------------
A|--3--------------5--------------6--------------5--6--5--6--
D|-----0--0--0--0-----0--0--0--0-----0--0--0--0--------------

Stave 7:

G|-----------------------------------------------------------
D|-----------------------------------------------------------
A|--3--------------5--------------6--------------------------
D|-----0--0--0--0-----0--0--0--0-----0--0--0--0--5--7--8--7--

http://www.guitartabcreator.com
Guitar Tab Creator is intended to store guitar tab created through the tool. It currently does not support in-line text editing. Any text you place in here will be lost. If you need to comment on your tab, please use the "Tab Notes" section located below.