Finger Warm up

Chords

01234567891011121314151617181920212223
E
B
G
D
A
E
B
0 1 2 3 4 5 6 7 8 9 10 11 12 13 14 15 16 17 18 19 20 21 22 23
(/) Slide Up  (\) Slide Down  (h) Hammer On  (p) Pull Off  (b) Bend (r) Release (v) Vibrato

Stave 1:

E|--------------------|--------------------|--------------------|--------5--------5--|--
B|--------1--------1--|--------3--------3--|--------5--------5--|-----6--------6-----|--
G|-----2--------2-----|-----4--------4-----|-----6--------6-----|--7--------7--------|--
D|--3--------3--------|--5--------5--------|--7--------7--------|--------------------|--
A|--------------------|--------------------|--------------------|--------------------|--
E|--------------------|--------------------|--------------------|--------------------|--

Stave 2:

E|--5--------5--------|--------------------|--------------------|--------------------|--|-----|--
B|-----6--------6-----|--5--------5--------|--3--------3--------|--1--------1--------|--|--2--|--
G|--------7--------7--|-----6--------6-----|-----4--------4-----|-----2--------2-----|--|--2--|--
D|--------------------|--------7--------7--|--------5--------5--|--------3--------3--|--|--2--|--
A|--------------------|--------------------|--------------------|--------------------|--|--0--|--
E|--------------------|--------------------|--------------------|--------------------|--|-----|--

							http://www.guitartabcreator.com
Tab Notes
Warm up the Fingers
Instruments
{"strings":[[[".",".",".",".",".",".","|",".",".",".",".",".",".","|",".",".",".",".",".",".","|",".",".",5,".",".",5,"|"],[".",".",1,".",".",1,"|",".",".",3,".",".",3,"|",".",".",5,".",".",5,"|",".",6,".",".",6,".","|"],[".",2,".",".",2,".","|",".",4,".",".",4,".","|",".",6,".",".",6,".","|",7,".",".",7,".",".","|"],[3,".",".",3,".",".","|",5,".",".",5,".",".","|",7,".",".",7,".",".","|",".",".",".",".",".",".","|"],[".",".",".",".",".",".","|",".",".",".",".",".",".","|",".",".",".",".",".",".","|",".",".",".",".",".",".","|"],[".",".",".",".",".",".","|",".",".",".",".",".",".","|",".",".",".",".",".",".","|",".",".",".",".",".",".","|"]],[[5,".",".",5,".",".","|",".",".",".",".",".",".","|",".",".",".",".",".",".","|",".",".",".",".",".",".","|","|",".","|"],[".",6,".",".",6,".","|",5,".",".",5,".",".","|",3,".",".",3,".",".","|",1,".",".",1,".",".","|","|",2,"|"],[".",".",7,".",".",7,"|",".",6,".",".",6,".","|",".",4,".",".",4,".","|",".",2,".",".",2,".","|","|",2,"|"],[".",".",".",".",".",".","|",".",".",7,".",".",7,"|",".",".",5,".",".",5,"|",".",".",3,".",".",3,"|","|",2,"|"],[".",".",".",".",".",".","|",".",".",".",".",".",".","|",".",".",".",".",".",".","|",".",".",".",".",".",".","|","|",0,"|"],[".",".",".",".",".",".","|",".",".",".",".",".",".","|",".",".",".",".",".",".","|",".",".",".",".",".",".","|","|",".","|"]]],"numberofstrings":6,"notes":["E","B","G","D","A","E","B"],"capo":0,"stringnotes":["E4","B3","G3","D3","A2","E2"],"comments":["Stave 1:","Stave 2:"],"timing":[["W","W","W","W","W","W",null,"W","W","W","W","W","W",null,"W","W","W","W","W","W",null,"W","W","W","W","W","W"],["W","W","W","W","W","W",null,"W","W","W","W","W","W",null,"W","W","W","W","W","W",null,"W","W","W","W","W","W",null,"W","W"]],"timingvisible":false,"tabcounter":31,"stave":1,"totalstaves":2,"instrument":"6guitar","selectedtuning":"6_standard","version":"13"}

Member for

1 week 2 days
Submitted by FatSteve on Tue, 2020-09-15 08:45