Sound will begin in 5 seconds

Predator

01234567891011121314151617181920212223
E
B
G
D
A
E
B
0 1 2 3 4 5 6 7 8 9 10 11 12 13 14 15 16 17 18 19 20 21 22 23
Song Science #1: How Pros Use 6 Chords to Write Hit Songs
(/) Slide Up  (\) Slide Down  (h) Hammer On  (p) Pull Off  (b) Bend (r) Release (v) Vibrato

Stave 1:

E |-----------------------------
B |--------------4-----4-----3--
Gb|--7--9--7--5-----4-----4-----
Db|-----------------------------
Ab|-----------------------------

Stave 2:

E |--------------------------------------------------------
B |--------------------------------------------------------
Gb|--------------------5--------------------------5--------
Db|--5--8--7--6--5--8-----8--8--5--8--7--6--5--8-----8--8--
Ab|--------------------------------------------------------

Stave 3:

E |-----------------------------------------------------------------
B |-----------------------------------------------------------------
Gb|--------------4--------------------------------------------------
Db|-----0--2--5-----0--2--2--2--2--2--2--2--2--2--2--2--2--2--2--2--
Ab|-----------------------------------------------------------------

Stave 4:

E |--------------------------------
B |--------2--------2--------2-----
Gb|--0--3-----0--2-----0--1--------
Db|-----------------------------0--
Ab|--------------------------------

Stave 5:

E |--------
B |--------
Gb|--------
Db|--1--0--
Ab|--------

Stave 6:

E |-----------------------------------------------------------------------------
B |-----------------------------------------------------------------------------
Gb|-----------------------------------3-----------------------------------3--5--
Db|--0--0--0--0--0--0--0--0--0--0--0-----1--0--0--0--0--0--0--0--0--0--0--------
Ab|-----------------------------------------------------------------------------

Stave 7:

E |--------------------------------------------------------------------------------
B |--------------------------------------------------------------------------------
Gb|-----------------------------------3--------------------------------------------
Db|--0--0--0--0--0--0--0--0--0--0--0-----1--0--0--0--0--0--0--0--4--4--4--3--3--3--
Ab|--------------------------------------------------------------------------------

Stave 8:

E |--------------------------------------------------------------------------
B |--------------------------------------------------------------------------
Gb|--------------------------------------------------------------------------
Db|--6--0--0--0--0--0--0--0--0--0--0--0--6--0--0--0--0--0--0--0--0--0--0--0--
Ab|--------------------------------------------------------------------------

Stave 9:

E |---------------------------------------------------------------------------------------------------------------
B |---------------------------------------------------------------------------------------------------------------
Gb|-----------12--12--12--12--12--12--12--13--12--12--12--12--12--12--15--12--12--12--12--12--12--13--12--10--10--
Db|---------------------------------------------------------------------------------------------------------------
Ab|--0--0--0------------------------------------------------------------------------------------------------------

Stave 10:

E |--------------------------------
B |--------------------------------
Gb|--------------------------------
Db|--------7--5--7--8--7--7--7--7--
Ab|--0--0--------------------------

Stave 11:

E |------------------------------------------------------------------
B |------------------------------------------------------------------
Gb|------------------------------------------------------------------
Db|-----7--------5--------7--------8---------7--------5--------------
Ab|--0-----8--0-----7--0-----8--0-----10--0-----8--0-----8--0--3--2--

Stave 12:

E |------------------------------------------------------------
B |------------------------------------------------------------
Gb|------------------------------------------------------------
Db|-----7--------5--------7--------8---------7--------5-----8--
Ab|--0-----8--0-----7--0-----8--0-----10--0-----8--0-----7-----

Stave 13:

E |--------------------------------------------------------------------
B |--------------------------------------------------------------------
Gb|--------------------------------------------------------------------
Db|-----3--------------3--------------------------5--------------------
Ab|--0-----3--0--6--5-----3--0--5--7--8--6--6--8-----5--5--7--8--8--3--

Stave 14:

E |--------------------------------------------------------------------------------
B |--------------------------------------------------------------------------------
Gb|--------------------------------------------------------------------------------
Db|--------------------------------------------------------------------3--3--------
Ab|--0--0--0--0--0--0--0--0--0--0--0--6--6--6--6--6--6--5--5--5--5--5--------3--3--

http://www.guitartabcreator.com
Guitar Tab Creator is intended to store guitar tab created through the tool. It currently does not support in-line text editing. Any text you place in here will be lost. If you need to comment on your tab, please use the "Tab Notes" section located below.