Sound will begin in 5 seconds

Outcry

01234567891011121314151617181920212223
E
B
G
D
A
E
B
0 1 2 3 4 5 6 7 8 9 10 11 12 13 14 15 16 17 18 19 20 21 22 23
Song Science #1: How Pros Use 6 Chords to Write Hit Songs
(/) Slide Up  (\) Slide Down  (h) Hammer On  (p) Pull Off  (b) Bend (r) Release (v) Vibrato

Stave 1:

E |-----------------------------------------------------
B |-----------------------------------------------------
Gb|-----9---------10-----12-----9---------7-----10----9-
Db|-7-7---7-7-7-7----7-7----7-7---7-7-8-8---8-8---------
Ab|-----------------------------------------------------

Stave 2:

E |-------------------------
B |-------------------------
Gb|-------------------------
Db|-4----4-3----3-4-4-3-3-4-
Ab|-------------------------

Stave 3:

E |---------------------------------------------------
B |---------------------------------------------------
Gb|---------------------------------------------------
Db|-4-4-4-4-4-4-4-4-3-3-3-3-3-3-3-3-3-5-5-5-5-4-4-4-4-
Ab|---------------------------------------------------

Stave 4:

E |-----------------------------------------------------
B |----------------6-7-6--------------------------------
Gb|-4---6-7-6---------------4---6-7-6------4------------
Db|---4----------4------------4----------4------5-5-4-3-
Ab|-----------------------------------------------------

Stave 5:

E |-
B |-
Gb|-
Db|-
Ab|-

Stave 6:

E |--------------------------------------------------------------------------
B |--------------------------------------------------------------------------
Gb|--------------------------------3-4-4-------------------------------------
Db|-2-0-2-3-2-2-2-2-2----2-0-2-3-2----------2-0-2-3-2-2-2-2-2----2-0-2-3-2-5-
Ab|--------------------------------------------------------------------------

Stave 7:

E |--------------------------------------------------------------------------------------
B |--------------------------------------------------------------------------------------
Gb|------------------------------------------------------------------------------------0-
Db|-2-2-2-0-2-3-2-2-2-2-2----2-2-2-0-2-3-2-2-2-2-2----2-2-2-0-2-3-2-2-2-2-2----2-2-0-2---
Ab|--------------------------------------------------------------------------------------

Stave 8:

E |------------------
B |------------------
Gb|-2----2----2------
Db|-------------3----
Ab|------------------

http://www.guitartabcreator.com
Guitar Tab Creator is intended to store guitar tab created through the tool. It currently does not support in-line text editing. Any text you place in here will be lost. If you need to comment on your tab, please use the "Tab Notes" section located below.