Sound will begin in 5 seconds

Las Pasi

01234567891011121314151617181920212223
E
B
G
D
A
E
B
0 1 2 3 4 5 6 7 8 9 10 11 12 13 14 15 16 17 18 19 20 21 22 23
Song Science #1: How Pros Use 6 Chords to Write Hit Songs
(/) Slide Up  (\) Slide Down  (h) Hammer On  (p) Pull Off  (b) Bend (r) Release (v) Vibrato

Stave 1:

E |----------------
B |----------------
Gb|-1-2-3----------
Db|-------1-0-1----
Ab|----------------

Stave 2:

E |----------------------------------------------------------------------------------|----------------
B |----------------------------------------------------------------------------------|----------------
Gb|----------------------------------------------------------------------1-2-3-------|----------------
Db|-0-0-0-0-0-0-1----0-0-0-0-0-0-1----0-0-0-0-0-0-1----0-0-0-0-0-0-1-0-0-------1-0-1-|----1-1-1-4-4-4-
Ab|----------------------------------------------------------------------------------|----------------

Stave 3:

E |-----------------------------------------------------------------------------
B |-----------------------------------------------------------------------------
Gb|-7-----6---7---3-------------------2-3-5----7-----6---7---3----6-6-6-6-5-5-6-
Db|---0-0---0---0------0-3-0----2-3-5------------0-0---0---0--------------------
Ab|-----------------------------------------------------------------------------

Stave 4:

E |----------------------------------------------------------------------|----------------------
B |----------------------------------------------------------------------|----------------------
Gb|----------------------------------------------------------------------|----------------2-3-5-
Db|-7-0-0-7-0-7-0-6----0-3-0-2-3-1-2----7-0-0-7-0-7-0-6----9-9-9-9-8-8-7-|-0-3-0----2-3-5-------
Ab|----------------------------------------------------------------------|----------------------

Stave 5:

E |-------------------------------------------------------------------------------------------|-----------
B |-------------------------------------------------------------------------------------------|-----------
Gb|-7------------------7------------------6------------------5----------------6-5-5-3-3-2-2-3-|-----------
Db|---0-3-0-0-0-0-0------0-3-0-0-0-0-0------0-3-0-0-0-0-0------0-3-0-0-0-0--------------------|-1-4-1-0-1-
Ab|-------------------------------------------------------------------------------------------|-----------

Stave 6:

E |-------------------------------------------------------------------
B |-------------------------------------------------------------------
Gb|-------------------------------------------------------1-2-3-------
Db|-0-0-0-0-0-0-1----0-0-0-0-0-0-1----0-0-0-0-0-0-1-0-0-0-------1-0-1-
Ab|-------------------------------------------------------------------

Stave 7:

E |-----------------------------------------------------------------
B |-----------------------------------------------------------------
Gb|-------------------------------------------------------1-2-3-----
Db|-0-0-0-0-0-0-8-7-0-0-0-0-0-0-8-7-0-0-0-0-0-0-8-7-0-0-0-------1-0-
Ab|-----------------------------------------------------------------

Stave 8:

E |---------------------------------------------------
B |-----9---------7-9-9-9--------9-----7---7----------
Gb|-7-7---7-7-7-7------------7-7---7-7---5---5----3-3-
Db|---------------------------------------------------
Ab|---------------------------------------------------

Stave 9:

E |------------------------------------------------------
B |-----5---4---4---4-5-5-5-5----------5---4---5---5-7---
Gb|-3-3---3---3---3--------------3-3-3---3---3---3-----5-
Db|------------------------------------------------------
Ab|------------------------------------------------------

Stave 10:

E |-----
B |-----
Gb|-----
Db|-1-1-
Ab|-----

Stave 11:

E |-----------------------------------------------------
B |-----------------------------------------------------
Gb|-----------------------------------------------------
Db|-9-0-0-6-0-0-9-0-0-6-0-6-0-9-0-6-0-9-0-0-6-0-0-9-0-0-
Ab|-----------------------------------------------------

Stave 12:

E |--------------------------------
B |--------------------------------
Gb|----------------------------6-6-
Db|-8-0-0-4-0-0-8-0-0-4-0-0--------
Ab|--------------------------------

Stave 13:

E |---------------------------------------------
B |---------------------------------------------
Gb|-1-1-1-1-1-1-1-1-4-4-4-4-4-4-4-8-8-8-8-8-8-8-
Db|---------------------------------------------
Ab|---------------------------------------------

Stave 14:

E |-----------------------
B |-----------------------
Gb|-----------------------
Db|-5-5-5-5-5-5-5-5-3-5-5-
Ab|-----------------------

Stave 15:

E |----------------------------------
B |--------------------------------8-
Gb|-4-1-4-4-1----7-4----10-7----11---
Db|----------------------------------
Ab|----------------------------------

http://www.guitartabcreator.com
Guitar Tab Creator is intended to store guitar tab created through the tool. It currently does not support in-line text editing. Any text you place in here will be lost. If you need to comment on your tab, please use the "Tab Notes" section located below.