Sound will begin in 5 seconds

Killing Silence

01234567891011121314151617181920212223
E
B
G
D
A
E
B
0 1 2 3 4 5 6 7 8 9 10 11 12 13 14 15 16 17 18 19 20 21 22 23
Song Science #1: How Pros Use 6 Chords to Write Hit Songs
(/) Slide Up  (\) Slide Down  (h) Hammer On  (p) Pull Off  (b) Bend (r) Release (v) Vibrato

Stave 1:

E |----------------------------------------------------------------------
B |----------------------------------------------------------------------
Gb|----3-----3-----3-----3-----3-------2-----2-----2-----2-----2---------
Db|------1-0---1-0---1-0---1-0---1-0-1---3-0---3-0---3-0---3-0---3-0-1-0-
Ab|----------------------------------------------------------------------

Stave 2:

E |--------------------------------------------------------------------------
B |--------------------------------------------------------------------------
Gb|------------------------------------------------------------------------3-
Db|-0-0-0-0----------1-1-1-4----4-4-3-0-0-0-3-0-0-0-1-1-1-4----4-4-3-0-0-0---
Ab|--------------------------------------------------------------------------

Stave 3:

E |---------------------------------------------------------
B |---------------------------------------------------------
Gb|-------------------------------------------------------3-
Db|-1-1-1-1-1-1-1-1-0-0-0-0-0-0-0-0-1-1-1-1-1-1-1-1-0-0-0---
Ab|---------------------------------------------------------

Stave 4:

E |-------------------------------------------------------------
B |-------------------------------------------------------------
Gb|-------------------------------9-----------------------------
Db|-6-6-6-9-7-7-7-9-6-6-6-9-7-7-7---6-6-6-9-7-7-7-9-6-6-6-9-7-4-
Ab|-------------------------------------------------------------

Stave 5:

E |------------------------
B |------------------------
Gb|------------------------
Db|-1----1-0----0-4----4-3-
Ab|------------------------

Stave 6:

E |---------------------------------------------------------
B |---------------------------------------------------------
Gb|---------------------------------------------------------
Db|-1-1-1-1-1-1-1-0-0-0-0-0-0-0-0-4-4-4-4-4-4-4-4-3-3-3-3-3-
Ab|---------------------------------------------------------

Stave 7:

E |------------------------------------------------------------
B |----------------------------2-------------------------------
Gb|----------------------5-3-5---------------------------5-3-2-
Db|-5----5-1----1-5----5------------5----5-1----1-5----5-------
Ab|------------------------------------------------------------

Stave 8:

E |------------------
B |------------------
Gb|------------------
Db|-5----3----1----3-
Ab|------------------

Stave 9:

E |-----------------------------------------------------------------------------------------------------------
B |-----------------------------------------------------------------------------------------------------------
Gb|----------------------------2-2-2----2-2-2-2-2-2-2-2-2-2-3-3-3----3-3-3-3-3-3-3-3-3-3-5-5-5----5-5-5-5-5-5-
Db|-5-5-5----5-5-5-5-5-5-5-5-5--------------------------------------------------------------------------------
Ab|-----------------------------------------------------------------------------------------------------------

Stave 10:

E |------------------------------------------------------------------------------------------------
B |------------------------------------------------------------------------------------------------
Gb|------------------------------------------------------------------------------------3----2----0-
Db|-5-5-5----5-5-5-5-5-5-5-5-5-3-3-3----3-3-3-3-3-3-3-3-3-1-1-1----1-1-1-1-1-1-3-3-3-3-------------
Ab|------------------------------------------------------------------------------------------------

Stave 11:

E |-----------------------------------------------------
B |-----------------------------------------------------
Gb|---------------4-4-4-4-4-4-4-3-3-3-3-3-3-3-3-6-6-6-6-
Db|-1-1-1-1-1-1-1---------------------------------------
Ab|-----------------------------------------------------

Stave 12:

E |------------------------------------------------------------|---------
B |------------------------------------------------------------|---------
Gb|-3-----3-----3-----3-6-6----2-----2-----2-----2-----2-------|---------
Db|---1-0---1-0---1-0------------3-0---3-0---3-0---3-0---3-0-3-|-1-------
Ab|------------------------------------------------------------|---------

http://www.guitartabcreator.com
Guitar Tab Creator is intended to store guitar tab created through the tool. It currently does not support in-line text editing. Any text you place in here will be lost. If you need to comment on your tab, please use the "Tab Notes" section located below.