Sound will begin in 5 seconds

Imndignation

01234567891011121314151617181920212223
E
B
G
D
A
E
B
0 1 2 3 4 5 6 7 8 9 10 11 12 13 14 15 16 17 18 19 20 21 22 23
Song Science #1: How Pros Use 6 Chords to Write Hit Songs
(/) Slide Up  (\) Slide Down  (h) Hammer On  (p) Pull Off  (b) Bend (r) Release (v) Vibrato

Stave 1:

E |-----------------
B |-----------------
Gb|-----------------
Db|--0-----2--0-----
Ab|-----------------

Stave 2:

E |--------------------
B |--------------------
Gb|-----------4-----3--
Db|--0--2--3-----------
Ab|--------------------

Stave 3:

E |--------------------------------------------------------------
B |--------------------------------------------------------------
Gb|--------------------------------------------------------------
Db|--0--0--0--0--0--0--0--0--0--0--0--0--0--0--0--0--0--0--0--0--
Ab|--------------------------------------------------------------

Stave 4:

E |-----------------------------------------------------
B |-----------------------------------------------------
Gb|-----2--3--5--3--------------2--2--2--3--3--3--5--3--
Db|--0-----------------0--0--0--------------------------
Ab|-----------------------------------------------------

Stave 5:

E |-----------------------------------------------------------------------------------------
B |--------------------------2-----------------------3--------------------2--------2--------
Gb|-----------------------3-----------------------3--------------------3--------2-----2--3--
Db|--0-----0--0--0--0--0-----------0--0--0--0--0--------0--0--0--0--0-----------------------
Ab|-----------------------------------------------------------------------------------------

Stave 6:

E |-----------------------------------------------------------------------------
B |-----------------------------------------------------------------------------
Gb|--4--------5--------6--------5--------4--------5--------6--------6--------5--
Db|-----3--3-----3--3-----3--3-----3--3-----3--3-----3--3-----3--3-----3--3-----
Ab|-----------------------------------------------------------------------------

Stave 7:

E |-----------------------------------------------------
B |-----------------------------------------------------
Gb|--------------3-----2-----------------3-----2--------
Db|--0-----5-----------------0-----5--------------3--2--
Ab|-----------------------------------------------------

Stave 8:

E |-----------------------------------------------------------
B |-----------------------------------------------------------
Gb|-----------------------------------------------------------
Db|--0--0--0--0--0--0--0--0--0--0--0-----0-----0-----0-----0--
Ab|-----------------------------------------------------------

http://www.guitartabcreator.com
Guitar Tab Creator is intended to store guitar tab created through the tool. It currently does not support in-line text editing. Any text you place in here will be lost. If you need to comment on your tab, please use the "Tab Notes" section located below.