Sound will begin in 5 seconds

IDK

01234567891011121314151617181920212223
E
B
G
D
A
E
B
0 1 2 3 4 5 6 7 8 9 10 11 12 13 14 15 16 17 18 19 20 21 22 23
Song Science #1: How Pros Use 6 Chords to Write Hit Songs
(/) Slide Up  (\) Slide Down  (h) Hammer On  (p) Pull Off  (b) Bend (r) Release (v) Vibrato

Stave 1:

E |---------------------------------
B |---------------------------------
Gb|-------------------------3-4-----
Db|-0-1-2-0-0-3-4-3-0-1-2-0-----3-4-
Ab|---------------------------------

Stave 2:

E |-----------------------------------
B |-----------------------------------
Gb|-------------------3-4---2-3-------
Db|-0-1-2-0-0-3-4-3-0-----0-----0-3-4-
Ab|-----------------------------------

Stave 3:

E |-------------------------------------------
B |-------------------------------------------
Gb|-----------------------------------5-------
Db|-0-0-0-0-0-0-0-6-0-0-0-0-0-0-0-5-6---6-5-6-
Ab|-------------------------------------------

Stave 4:

E |-------------------------------------
B |-------------------------------------
Gb|---------------5---------------------
Db|-0-0-0-0-0-0-0---0-0-0-0-0-0-0-3-3-3-
Ab|-------------------------------------

Stave 5:

E |-------------------------------------------
B |-------------------------------------------
Gb|-------------------------------------------
Db|-0-0-0-0-0-6-6-6-6-6-3-3-3-3-3-6-6-6-6-6-0-
Ab|-------------------------------------------

Stave 6:

E |---------------------------------
B |---------------------------------
Gb|---------------------------------
Db|-0-0-0-0-0-0-1-2-0-0-0-0-0-0-1-2-
Ab|---------------------------------

Stave 7:

E |---------------------------------
B |---------------------------------
Gb|-------------2-3---------3-4-----
Db|-0-0-0-0-0-0-----0-3-4-0-----3-4-
Ab|---------------------------------

Stave 8:

E |-----------
B |-----------
Gb|-------6---
Db|-5-7-5---4-
Ab|-----------

Stave 9:

E |---------------------
B |---------------------
Gb|--------8--------8---
Db|-8-10-8---8-10-8---7-
Ab|---------------------

Stave 10:

E |-----------------------------------------------------------
B |-----------------------------------------------------------
Gb|---------------5---------------5---------------5---8-7-6-5-
Db|-0-0-0-0-0-0-5---5-0-0-0-0-0-3---3-0-0-0-0-0-5---5---------
Ab|-----------------------------------------------------------

Stave 11:

E |----------------------------
B |----------------------------
Gb|----------------------------
Db|----0-3-0-5-3-6-3-5-0-0-0-6-
Ab|----------------------------

Stave 12:

E |--------------------------------------
B |--------------------------------------
Gb|--------------------------------------
Db|-0-3-0-6----0-3-0-6-3----0-3-0-6----3-
Ab|--------------------------------------

http://www.guitartabcreator.com
Guitar Tab Creator is intended to store guitar tab created through the tool. It currently does not support in-line text editing. Any text you place in here will be lost. If you need to comment on your tab, please use the "Tab Notes" section located below.