Sound will begin in 5 seconds

Haul Down The Tree

01234567891011121314151617181920212223
E
B
G
D
A
E
B
0 1 2 3 4 5 6 7 8 9 10 11 12 13 14 15 16 17 18 19 20 21 22 23
Song Science #1: How Pros Use 6 Chords to Write Hit Songs
(/) Slide Up  (\) Slide Down  (h) Hammer On  (p) Pull Off  (b) Bend (r) Release (v) Vibrato

Stave 1:

E |-------------------------------------------------------------------------------------------------------------------------
B |-------------------------------------------------------------------------------------------------------------------------
Gb|-------------------------------------------------------------------------------------------------------------------------
Db|--1--0--0--4--0--5--0--0--8--0--7--0--0--8--0--10--0--0-----1--0--4--0--0--5--0--7--0--0--8--0--0--10--0--0-----0--1--0--
Ab|-------------------------------------------------------------------------------------------------------------------------

Stave 2:

E |-----------------------------------------------------------------------------------------------------
B |-----------------------------------------------------------------------------------------------------
Gb|--------------------------------------------------------------------------3-----2--------0--2--2--3--
Db|--4--0--3--0--3--4--0--4--0--3--0--0--3--0--3--4-----4--0--3--0--3--4--0-----0-----0--0--------------
Ab|-----------------------------------------------------------------------------------------------------

Stave 3:

E |-----------------------------------------------------------------------------------------------
B |-----------------------------------------------------------------------------------------------
Gb|--------------------------------------------------------------------------3--2-----------------
Db|--4--0--3--0--3--4--0--4--0--3--0--0--3--0--3--4-----4--0--3--0--3--4--0--------0--4--0--3--4--
Ab|-----------------------------------------------------------------------------------------------

Stave 4:

E |-----------------------------------------------
B |-----------------------------------------------
Gb|--------2--------------------------------------
Db|--0--0-----0--0--3--0--0--3--0--1--1--3--3-----
Ab|-----------------------------------------------

http://www.guitartabcreator.com
Guitar Tab Creator is intended to store guitar tab created through the tool. It currently does not support in-line text editing. Any text you place in here will be lost. If you need to comment on your tab, please use the "Tab Notes" section located below.