Sound will begin in 5 seconds

The Great Divide

01234567891011121314151617181920212223
E
B
G
D
A
E
B
0 1 2 3 4 5 6 7 8 9 10 11 12 13 14 15 16 17 18 19 20 21 22 23
Song Science #1: How Pros Use 6 Chords to Write Hit Songs
(/) Slide Up  (\) Slide Down  (h) Hammer On  (p) Pull Off  (b) Bend (r) Release (v) Vibrato

Stave 1:

E |-----------------------------------------------------------------------
B |-----------------------------------------------------------------------
Gb|-----------------------------------------------------------------------
Db|--5--6--3--5--6--1--5--------5--------5--5--5--5--5--3--5--------5--5--
Ab|-----------------------------------------------------------------------

Stave 2:

E |--------------------------------------------------------------------
B |--------------------------------------------------------------------
Gb|--------------------------------------------------------------------
Db|-----5--5--5--5--5--5--5--5--5--5--5--5--5--5--3--5--5--5--5--5--5--
Ab|--------------------------------------------------------------------

Stave 3:

E |-------------------------------------------
B |-------------------------------------------
Gb|--------------------------------------6/9--
Db|--5--6--3--5--6--0--5-----5--5--5--5-------
Ab|-------------------------------------------

Stave 4:

E |--------------------------------------------------|-----------
B |--------------------------------------------------|-----------
Gb|-----------------------------------6--6--6--6-----|--6--7--9--
Db|--5--5--5--3--5--5--5--5--5--7--8-----------------|-----------
Ab|--------------------------------------------------|-----------

Stave 5:

E |--------------------------------------------------------
B |--------------------------------------------6--------7--
Gb|-----------------------------------------------7--8-----
Db|--0-----0--3--6--6--6--6--0--2--0--3--0--5--------------
Ab|--------------------------------------------------------

Stave 6:

E |-----------------------------------------------------------------------
B |-----------------------------------------------------------6--------7--
Gb|--------------------------------------------------------------7--8-----
Db|--0--2--0--3--0--5--0--3--6--6--6--6-----0--2--0--3--0--5--------------
Ab|-----------------------------------------------------------------------

Stave 7:

E |---------------------------------------------------------------------------------------------------------
B |-----------------------------------------------------------6---------------------------------------------
Gb|--------------------------------------------------------------8--7--5--7--8--7--------------7-----10--7--
Db|--0--2--0--3--0--5--0--3--6--6--6--6-----0--2--0--3--0--5-----------------------6--3--0--------6---------
Ab|---------------------------------------------------------------------------------------------------------

Stave 8:

E |---------------------------------------------------------------------------------------------------
B |---------------------------------------------------------------------------------------------------
Gb|--7--7--7--7--10--7--7--7--------------------------------------------------------------------------
Db|---------------------------6--6--6--6--9--6--6--6--3--3--3--3--6--3--3--3--0--0--0--0--3--0--0--0--
Ab|---------------------------------------------------------------------------------------------------

Stave 9:

E |---------------------------------------------------------------------------------------------------------------
B |---------------------------------------------------------------------------------------------------------------
Gb|--7--7--7--7--10--7--7--7--------------------------10--10--10--10--13--10--10--10--7--7--7--7--10--7--7--7-----
Db|---------------------------6--6--6--6--9--6--6--6-----------------------------------------------------------5--
Ab|---------------------------------------------------------------------------------------------------------------

Stave 10:

E |--------------------------------------------------------
B |--------------------------------------------------------
Gb|-----5--5--5--3--5--6--6--6--6--5--5--5--3--5--6--8--8--
Db|--------------------------------------------------------
Ab|--------------------------------------------------------

Stave 11:

E |--------------------4-----5--
B |-----------------------------
Gb|--2--0--2--3--1--2-----3-----
Db|-----------------------------
Ab|-----------------------------

Stave 12:

E |-----------------------------------------------------
B |-----------------------------------------------------
Gb|--------8--7--6--------------8--7--8-----7--6--7-----
Db|--5-----------------3--5--------------------------8--
Ab|-----------------------------------------------------

Stave 13:

E |--------------------------------------------------
B |--------------------------------------------------
Gb|--------8--7--6--------------------3--2--3--6--5--
Db|--5-----------------5--5--5--5--------------------
Ab|--------------------------------------------------

Stave 14:

E |-----------
B |-----------
Gb|-----------
Db|--6-----5--
Ab|-----------

Stave 15:

E |--------------------------------------------------------------------------------------------------|--------------------
B |--------------------------------------------------------------------------------------------------|--------------------
Gb|--5--5--5--5--5--5--5--5--1--1--1--1--1--1--1--1--3--3--3--3--3--3--3--3--------------------------|--------------------
Db|--------------------------------------------------------------------------3--3--3--3--3--3--3--3--|--0--3--3--0--3--3--
Ab|--------------------------------------------------------------------------------------------------|--------------------

Stave 16:

E |--------------------------------------------------
B |--------------------------------------------------
Gb|--5--5--5--5--5--5--8--8--5--5--5--5--------------
Db|--------------------------------------4--4--4--4--
Ab|--------------------------------------------------

Stave 17:

E |-----------------------------------------6-----6--
B |--------------------------------------------------
Gb|--5--5--5--5--5--5--8--8--5--5--5--5--4-----4-----
Db|--------------------------------------------------
Ab|--------------------------------------------------

Stave 18:

E |-----------------------------------------------------|--------------
B |-----------------------------------------------------|--------------
Gb|-----------------------------------------------------|-----6--4--5--
Db|-----------------4--4--4-----------------------------|--4-----------
Ab|--3--3--3--6--3--------------3--3--3--3--2--2--2--2--|--------------

http://www.guitartabcreator.com
Guitar Tab Creator is intended to store guitar tab created through the tool. It currently does not support in-line text editing. Any text you place in here will be lost. If you need to comment on your tab, please use the "Tab Notes" section located below.