Sound will begin in 5 seconds

First Of Persistance

01234567891011121314151617181920212223
E
B
G
D
A
E
B
0 1 2 3 4 5 6 7 8 9 10 11 12 13 14 15 16 17 18 19 20 21 22 23
Song Science #1: How Pros Use 6 Chords to Write Hit Songs
(/) Slide Up  (\) Slide Down  (h) Hammer On  (p) Pull Off  (b) Bend (r) Release (v) Vibrato

Stave 1:

E |--------------------------------------------------------------------------
Bb|--------------------------------------------------------------------------
Gb|--------2--1-----1-----------2--1-----1-----1--2--1-----1-----------------
Db|--0--3--------3--------0--3--------3-----------------3-----3--2--3--2--3--
Ab|--------------------------------------------------------------------------

Stave 2:

E |--------------------------------------
Bb|--------------------------------------
Gb|--------2--1-----1-----------------7--
Db|--0--3--------3--------1-----0--3-----
Ab|--------------------------------------

Stave 3:

E |-----------------------------------------------
Bb|-----------------------------------------------
Gb|-----------------7-----------------------------
Db|--0-----0--0-----------0-----6--3--0--2--0--1--
Ab|-----------------------------------------------

Stave 4:

E |--------------------------------------------------------
Bb|--------------------------------------------------------
Gb|--------------------------------------------------------
Db|--0--0--3--0--5--6-----0--0--3--0--5--6--5--3--5--2--3--
Ab|--------------------------------------------------------

Stave 5:

E |--------------------------------------------------------
Bb|--------------------------------------------------------
Gb|--------------------------------------------------------
Db|--0--0--3--0--5--6-----0--0--3--0--5--6--3--0--2--0--1--
Ab|--------------------------------------------------------

Stave 6:

E |-----------------------------------------------
Bb|-----------------------------------------------
Gb|-----------------------------------------------
Db|--0--0--3--0--5--6-----0--0--3--0--5--1--1--1--
Ab|-----------------------------------------------

Stave 7:

E |--------------------------------------------------------------
Bb|--------------------------------------------------------------
Gb|--------------------------------------------------------------
Db|--0--0--0--0--0--0--0--0--0--0--0--3--3--3--6--6--6--2--2--2--
Ab|--------------------------------------------------------------

Stave 8:

E |-----------------------------------------------------------
Bb|-----------------------------------------------------------
Gb|--------7--7-----------------------------------------------
Db|--0--0--------0--0--6--6--0--0--3--3--3--6--6--6--2--2--2--
Ab|-----------------------------------------------------------

Stave 9:

E |-----------------------------
Bb|--------------5--6--5--5-----
Gb|--------------------------7--
Db|--0--3/12--------------------
Ab|-----------------------------

Stave 10:

E |--------------------------------------------
Bb|--------------------------------------8-----
Gb|--7-----6-----5--------7-----6-----7--------
Db|-----8-----7-----6--------8-----7-----------
Ab|--------------------------------------------

Stave 11:

E |--------------------------------------------------
Bb|-----------------------------7--8--7--7--8--7-----
Gb|--------------------------------------------------
Db|--0-----3--5--6--0--0--0--0--------------------0--
Ab|--------------------------------------------------

Stave 12:

E |--------------------------------
Bb|--------------------------------
Gb|--------------------------------
Db|--0-----3--5--6--0-----5--6--5--
Ab|--------------------------------

Stave 13:

E |----------------------------------------------------------------------------
Bb|------------------------------------------------10--------------------------
Gb|--7--------10--6-----------------------7------------6-----------------------
Db|-----0--0---------0--0--0--0--3--5--6-----0--0---------0--5--6--5--5--6--5--
Ab|----------------------------------------------------------------------------

Stave 14:

E |--------------------------------------------------------------------
Bb|--------------------------------------------------------------------
Gb|--------------7--------------------------------7--------------------
Db|--0--0--0--0-----0--0--3--5--6-----0--0--0--0-----5--6--5--5--6--5--
Ab|--------------------------------------------------------------------

Stave 15:

E |-----------------------------------------------------------
Bb|-----------------------------------------------------------
Gb|-----------------------------------------------------------
Db|--0--0--0--3--5--0--0--0--3--4--0--0--0--3--5--3--2--3-----
Ab|-----------------------------------------------------------

Stave 16:

E |---------------------------------------------------------------------------------------------
Bb|---------------------------------------------------------------------------------------------
Gb|-----------------------------------------------------------7--7--10--------------2--1-----1--
Db|--0--0--0--0--0--0--0--0--0--0--0--0--0--0--1--0--0--0--0------------0--0--0--0--------3-----
Ab|---------------------------------------------------------------------------------------------

Stave 17:

E |--------------------------------------------------------------------------------
Bb|--------------------------------------------------------------------------------
Gb|--------------------------------------------------------------------------------
Db|--0--3--5--0--0--0--0--0--3--4--0--0--0--0--3--5--0--0--0--0--3--5--3--1--3--4--
Ab|--------------------------------------------------------------------------------

Stave 18:

E |-----------------------------------
Bb|-----------------------------------
Gb|-----------------------------------
Db|--0--1--3--0--1--2--0--1--3--5--4--
Ab|-----------------------------------

http://www.guitartabcreator.com
Guitar Tab Creator is intended to store guitar tab created through the tool. It currently does not support in-line text editing. Any text you place in here will be lost. If you need to comment on your tab, please use the "Tab Notes" section located below.