Sound will begin in 5 seconds

Faces of the Fallen

01234567891011121314151617181920212223
E
B
G
D
A
E
B
0 1 2 3 4 5 6 7 8 9 10 11 12 13 14 15 16 17 18 19 20 21 22 23
Song Science #1: How Pros Use 6 Chords to Write Hit Songs
(/) Slide Up  (\) Slide Down  (h) Hammer On  (p) Pull Off  (b) Bend (r) Release (v) Vibrato

Stave 1:

E |----------------------------------
B |----------------------------------
Gb|----------------------------------
Db|----------------------------5-3-1-
Ab|----------------------------------

Stave 2:

E |-----------------------------
B |-----------------------------
Gb|-----------------------------
Db|-0----1----3----5----5-3-1-0-
Ab|-----------------------------

Stave 3:

E |-------------------------------------------------------------
B |-------------------------------------------------------------
Gb|---------------------------2----2-2-2-2-2-2------------------
Db|-0----1----3----5----5-3-1------------------3----2-2-2-1-1-1-
Ab|-------------------------------------------------------------

Stave 4:

E |------------------------------------------------------
B |------------------------------------------------------
Gb|------------------------------7-7-7-7-7-7-7-7-7-7-7-7-
Db|-0-0-0-0-0-0-0-0-0-0-0-0-0----------------------------
Ab|------------------------------------------------------

Stave 5:

E |-------------------------------------------------------------
B |-------------------------------------------------------------
Gb|-------------------------------------------------------------
Db|-1-1-1-1-1----2-2-2-2-2----1-1-1-1-1----2-2-2-2-2----5-5-5-5-
Ab|-------------------------------------------------------------

Stave 6:

E |------------------------------------------------------------------------------------------
B |------------------------------------------------------------------------------------------
Gb|------------3-3-3-3-------------------------------------3-3-3-3---------------2-2-2-------
Db|-0-0-0-0---------------3-3-3-3----2-2-2-2----0-0-0-0---------------3-3-3-3----------5-5-5-
Ab|------------------------------------------------------------------------------------------

Stave 7:

E |-----------------------------------------------------------
B |-----------------------------------------------------------
Gb|-----7-----5-7-----7-----5-7-----7-----5-7-5-7-5-7-5-7-5-7-
Db|-0-0---0-0-----0-0---0-0-----0-0---0-0---------------------
Ab|-----------------------------------------------------------

Stave 8:

E |-------------------------------------
B |-------------------------------------
Gb|-----2----2-3-2-----2--------7-----7-
Db|-0-0------------5-5------0-0---6-5---
Ab|-------------------------------------

Stave 9:

E |-----------------------------------------------------------------------
B |-----------------------------------------------------------------------
Gb|---2----2-3-2-----2--------2-----1--------2----3------2--------7-----7-
Db|-0------------5-5------0-0---3-2------3-2-----------5------0-0---6-5---
Ab|-----------------------------------------------------------------------

Stave 10:

E |-----------------
B |-----------------
Gb|-7-----7---------
Db|---6-5---------1-
Ab|-----------------

Stave 11:

E |--------------------------------------------------------------
B |--------------------------------------------------------------
Gb|--------------------------------------------------------------
Db|-0-0-0----0-0----0-0-0----0-0----0-0-0----0-0----0-0-0----0-0-
Ab|--------------------------------------------------------------

Stave 12:

E |-----------------------------------------------------------------
B |-----------------------------------------------------------------
Gb|-----------------------------------------------------------------
Db|-0-1-1-1-0-1-1-1-0-1-1-1-0-1-1-1-0-1-1-1-0-1-1-1-0-1-1-1-0-1-1-1-
Ab|-----------------------------------------------------------------

Stave 13:

E |--------------------------------------------------------------
B |--------------------------------------------------------------
Gb|--------------------------------------------------------------
Db|-0-0-3----0-0----0-0-3----0-0----0-0-3----0-0----0-0-3----0-0-
Ab|--------------------------------------------------------------

Stave 14:

E |-------------------------------------------------------------
B |-------7-9-10-------------------------7-9-10-----------------
Gb|-7-7-7-----------7-7-7-7-7-7----7-7-7--------7-8-8-7-8-8-7-8-
Db|-------------------------------------------------------------
Ab|-------------------------------------------------------------

Stave 15:

E |-------------------------------------------------------------
B |-------8-10-11-------------------------8-10-11---------------
Gb|-8-8-8------------8-8-8-8-8-8----8-8-8---------8-9-9-8-9-9-9-
Db|-------------------------------------------------------------
Ab|-------------------------------------------------------------

Stave 16:

E |---------------------------------------------------------
B |---------------------------------------------------------
Gb|-------3-5-6-------------------------3-5-6---------------
Db|-3-3-3----------3-3-3-3-3-3----3-3-3-------3-4-4-3-4-4-4-
Ab|---------------------------------------------------------

Stave 17:

E |--------------------------------------------------------
B |-3-3-3-1-3-4-1-3-3-3-3-3-3-3-3----3-3-3-1-3-4-3-3-3-3-3-
Gb|--------------------------------------------------------
Db|--------------------------------------------------------
Ab|--------------------------------------------------------

Stave 18:

E |------------------------------------------------------------
B |------------------------------------------------------------
Gb|------------------------------------------------------------
Db|-3-3-3-1-3-4-1-3-3-3-3-3-3-3-3-3----3-3-3-1-3-4-3-3-3-3-3-3-
Ab|------------------------------------------------------------

Stave 19:

E |----------------------------------------------------------------------------------------------
B |----------------------------------------------------------------------------------------------
Gb|----------------------------------------------------------------------------------------------
Db|-1-1-1-1-1-1-1-1-1-1----2-2-2-2-2-2-2-2-2----3-3-3-3-3-3-3-3-3-3----2-2-2-2-2-2-5-5-5-5-5-5-0-
Ab|----------------------------------------------------------------------------------------------

http://www.guitartabcreator.com
Guitar Tab Creator is intended to store guitar tab created through the tool. It currently does not support in-line text editing. Any text you place in here will be lost. If you need to comment on your tab, please use the "Tab Notes" section located below.