Sound will begin in 5 seconds

From Essence Deprived

01234567891011121314151617181920212223
E
B
G
D
A
E
B
0 1 2 3 4 5 6 7 8 9 10 11 12 13 14 15 16 17 18 19 20 21 22 23
Song Science #1: How Pros Use 6 Chords to Write Hit Songs
(/) Slide Up  (\) Slide Down  (h) Hammer On  (p) Pull Off  (b) Bend (r) Release (v) Vibrato

Stave 1:

E |---------------------------------
B |---------------------------------
Gb|---------------------------------
Db|--0-----7/8--7-----0-----7/8--0--
Ab|---------------------------------

Stave 2:

E |------------------------------------------------------------------------
B |------------------------------------------------------------------------
Gb|--------------------------10--------------------------2-----3--2-----7--
Db|--0--0-----0-----7-----8------8--7-----0--0--0--0--0--------------3-----
Ab|------------------------------------------------------------------------

Stave 3:

E |-----------------------------------------------------------------------
B |-----------------------------------------------------------------------
Gb|-----------------------------------------------------------------------
Db|--0--0--0--0-----7--7--7--7--5--5--5--0--0--0--0-----7--7--7--5--5--5--
Ab|-----------------------------------------------------------------------

Stave 4:

E |----------------------------------------------------------------------------|-----------
B |----------------------------------------------------------------------------|-----------
Gb|-----------5--7--------------5--7-----------------------------10-----9------|--3--2-----
Db|--0--0--0--------0--0--0--0--------------7--7--7--7--7--7---------------10--|--------3--
Ab|----------------------------------------------------------------------------|-----------

Stave 5:

E |--------------------------------------------------------------------------|-----|-------------
B |--------------------------------------------------------------------------|-----|-------------
Gb|-----------5--7--------------5--7-----------------------------------------|-----|--10--9------
Db|--0--0--0--------0--0--0--0--------0--7--7--7--7--7--7--5--5--5--5--7--8--|--3--|---------10--
Ab|--------------------------------------------------------------------------|-----|-------------

Stave 6:

E |-----------------------------------------------------------------------------
B |--------------------------------------------5-----9-----------7--------------
Gb|--3--3--3--7--7--7--3--3--3--------------3-----3-----7--7--5-----5--3-----2--
Db|-----------------------------0--0--0-----------------------------------------
Ab|-----------------------------------------------------------------------------

Stave 7:

E |-----------------------------------------------------------------------------------
B |-----------------------------------------------------------------------------------
Gb|-----------------------------------------------------------------------10------12--
Db|--0--0--0--0-----0--3--3--3--3--3-----7--7--7--7-----5--5--5--5-----8------10------
Ab|-----------------------------------------------------------------------------------

Stave 8:

E |--------------------------------------------------------------------------------------------
B |--------------------------------------------------------------------------------------------
Gb|-----------------------------5--7--------------------5--3--3--3--3--3--3--3--2--2--2--2--2--
Db|--0--0--0--0--0--0--0--0--0--------0--0--0--0--0--0-----------------------------------------
Ab|--------------------------------------------------------------------------------------------

Stave 9:

E |--------------------|--------------------------------------------------
B |--------------------|--------------------------------------------------
Gb|--------------------|-----------------------------5--7-----------5--7--
Db|--3--3--3--2--2--2--|--3--3--3--5--5--5--0--0--0--------0--0--0--------
Ab|--------------------|--------------------------------------------------

Stave 10:

E |-----------------------------------------
B |-----------------------------------------
Gb|-----------------------------------------
Db|--3--3--3--5--5--5--2--2--2-----2--3--5--
Ab|-----------------------------------------

Stave 11:

E |-----------------------------------------------------|--------------------------------
B |-----------------------------------------------------|--4-----------------------------
Gb|--2--2--2--2-----------------------------------------|--------------------------------
Db|--------------3--3--3--3--5--5--5--5--2--2-----3--5--|--------1--1--1--1--3--3--3--3--
Ab|-----------------------------------------------------|--------------------------------

Stave 12:

E |--------------------------------------
B |--------------------------------------
Gb|-----7-----------5--7-----------------
Db|--0--------0--0--------0--0--3--3--3--
Ab|--------------------------------------

http://www.guitartabcreator.com
Guitar Tab Creator is intended to store guitar tab created through the tool. It currently does not support in-line text editing. Any text you place in here will be lost. If you need to comment on your tab, please use the "Tab Notes" section located below.